Matt Costa - Ballad Of Miss Kate Black Chords & Tabs

 

Ballad Of Miss Kate Black Chords & Tabs

Matt Costa Chords & Tabs

Version: 1 Type: Tab 0 ratings
1 star 2 stars 3 stars 4 stars 5 stars
comments

Ballad Of Miss Kate Black Tab

song: ballad of miss kate
artist:matt  costa
transcribed by: fretless fernando
tunning: standard
note: the order is wrong and u have to figure out the strumming yourself. im a little lazy

verse: just repeat throughout the verse
---------------------------------------|
---------------------------------------|
---------------------------------------|
-5---5-5-5-5------------5--5-----------|
-5---5-5-3h5------------5--5-----------|
-3---3-3-3-3------------3--3-----------|
[ Tab from: http://www.guitartabs.cc/tabs/m/matt_costa/ballad_of_miss_kate_black_tab.html ]
"black seeing black"
----------------------------------------|
----------------------------------------|
-2--------------------------------------|
-3---------5-5-5-5----------------------|
-3---------5-5-5-3-h-5------------------|
-1---------3-3-3-3----------------------|

"u gave me your word then u run run run run.................never looking back"
------------------------------------------------|
------------------------------------------------|
-5--------7-------------------------------------|              (figure out the strumming)
-5--------7-------3-----------------------------|
-3--------5-------3-----------------------------|
------------------1-----------------------------|

"u can run and u can hide but u wont get away this time"
---------------------------------|
---------------------------------|
3-----5--------------------------|
3-----5-- 5-5-5-5-5--------------|
1-----3---5-5-5-3h5--------------|
----------3-3-3-3-3--------------|
Comments