Matson Tyler - On That Night I Met You Chords & Tabs

 

On That Night I Met You Chords & Tabs

Matson Tyler Chords & Tabs

Version: 1 Type: Tab 0 ratings
1 star 2 stars 3 stars 4 stars 5 stars
comments

On That Night I Met You Tab

Title: On That Night I Met You...............................................Incomplete
Artist: Tyler Matson
Submitted by: Tyler Matson

|------3----3---3---3-3-3-3-3---------3----3?--3-3-3-3-3--------3----3?--3---3-3-3-3-3--------|
|------0----0?--0---0-0-0-0-0---------0----0---0-0-0-0-0--------0----0---0---0-0-0-0-0--------|
|------0----0---0---0-0-0-0-0---------0----0---0-0-0-0-0--------0----0---0---0-0-0-0-0--------|
|------0----0---0---0-0-0-0-0---------0----0---0-0-0-0-0--------0----0---0---0-0-0-0-0--------|
|x-------------------x-------------------x----------------x----3---------x-----------x--------||
|-3-------------------------------3-----------------------------------------------------------|



|------3----3-3--3-3-3-3-3--------0----0---0-0-0-0-0--------0----0?0-0-0-0-0-0--------|
|------0----0?0--0-0-0-0-0--------2----2---2-2-2-2-2--------1----1-1-1-1-1-1-1--------|
|------0----0-0--0-0-0-0-0--------0----0---0-0-0-0-0--------0----0-0-0-0-0-0-0--------|
|------3----3?3--3-3-3-3-3--------2----2---2-2-2-2-2--------1----1-1-1-1-1-1-1--------|
|x-------------------x-------------------x----------------x---------------x-----------|
|x-------------------x-------------------x----------------x---------------x-----------||


[ Tab from: http://www.guitartabs.cc/tabs/m/matson_tyler/on_that_night_i_met_you_tab.html ]
|-----0-----0---0?0-0-0-0-0------0-----0---0-0-0-0-0-|-------3----3---3---3-3-3-3-3--------|
|-----0-----0---0-0-0-0-0-0------0-----0---0-0-0-0-0-|-------0----0---0---0-0-0-0-0--------|
|-----0-----0---0-0-0-0-0-0------0-----0---0-0-0-0-0-|-------0----0---0---0-0-0-0-0--------|
|-----0-----0---0-0-0-0-0-0------0-----0---0-0-0-0-0-|-------0----0---0---0-0-0-0-0--------|
|----------------------------------3-----------------|-------------------------------------|
|----------------------------------------------------|-3-----------------------------------|     

  

|------3----3---3--3-3-3-3-3--------0----0---0-0-0-0-0--------0----0?--0---0-0-0-0-0--------|
|------0----0---0--0-0-0-0-0--------0----0---0-0-0-0-0--------0----0---0---0-0-0-0-0--------|
|------0----0---0--0-0-0-0-0--------0----0---0-0-0-0-0--------0----0---0---0-0-0-0-0--------|
|------3----3?--3--3-3-3-3-3--------2----2---2-2-2-2-2--------1----1---1---1-1-1-1-1--------|
|x-------------------x-------------------x----------------x---------------x-----------x---------x--|
|x-------------------x-------------------x----------------x---------------x-----------x---------x--|



|-----0-----0---0?--0-0-0-0-0------0-----0---0-0-0-0-0-|-------3----3---3---3-3-3-3-3--------|
|-----0-----0---0---0-0-0-0-0------0-----0---0-0-0-0-0-|-------0----0---0---0-0-0-0-0--------|
|-----0-----0---0---0-0-0-0-0------0-----0---0-0-0-0-0-|-------0----0---0---0-0-0-0-0--------|
|-----0-----0---0---0-0-0-0-0------0-----0---0-0-0-0-0-|-------0----0---0---0-0-0-0-0--------|
|-----------------------------3------------------------|-------------------------------------|
|------------------------------------------------------|-3-----------------------------------|
...................................................................................................

|  At this point I need a kick knob guitar solo.  Any help would be hot!!! |

tdsportsboy@juno.com


Comments