Matisyahu - Youth Chords & Tabs

 

Youth Chords & Tabs

Matisyahu Chords & Tabs

Version: 1 Type: Tab

Youth Tab

   
Intro with wah
      -----------------------|
      -----------------------|
      ------------5-5-5------|
      --7--7-7--5-5-5-5-5-7--|
      --7--7-7--5-3-3-3-5-7--|
      --5--5-5--3-------3-5--| listen for the feel of the rhythm and repeat.

 Verse: AM (barred)two strokes
        G  (barred) two strokes


Chorus lick: I reccomend you keep this shape by barring the 5th with your index and your 
finger on the 7th:
--5--------------|
--5--------------|
--5--------------|
--5--------------|
--7--------------|
-----------------|
[ Tab from: http://www.guitartabs.cc/tabs/m/matisyahu/youth_tab.html ]
when you get the shape play something like this:
-----8------7--5---5-----5--|
---5------5----5---5-----5--|
--5------5-----5---5h7---5--|
---------------5------------|
---------------7-------7----|
----------------------------|

"You Gotta Make the right Move" end with an open E major.

it is all really centered around that shape. You can add hammerons on the 7th fret and 
8th on the top E string.


"Youth is the engine of the world" lick:
-----------------10-10-8------------| reapeat one more time
--------10-10-10--------------------|
-7-7-7--------------------10-9-7----|
------------------------------------|
------------------------------------|
------------------------------------|


Verse AM and Gmajor

Solo is an a AM penatonic

repeat chorus licks


This should be near 100% correct.