Matisyahu - King Without A Crown Chords & Tabs

 

King Without A Crown Chords & Tabs

Matisyahu Chords & Tabs

Version: 7 Type: Tab

King Without A Crown Tab

   
-------------------------------------------------------------------------------
			     King Without a Crown - Matisyahu
-------------------------------------------------------------------------------
Tabbed by: Kyle

Tuning: standard


I am 100% sure about this. I hope this helps you out.
This can also be played with BAR CHORDS but its reggae so I think its best with triads.

                                    After the first time you can just play
INTRO  F#m    E      B       C#m         around inside the bar chord
e|---------------------------------------------------------------------------|
B|-----10-----9--------------------------------------------------------------|
G|-------------------8-------9-----------------------------------------------| 2x
D|---------------------------------------------------------------------------|
A|-----9------7--------------------------------------------------------------|
E|-------------------7-------9-----------------------------------------------|
Verse
      G#  G#  C  C   A#  A#  A#  A#  G#  G#  C   C   Fm  Fm  Fm  Fm  G
e|---4---4---3---3---6---6---6---6---4---4---3---3---1---1---1---1  3----------|
B|---4---4---4---4---6---6---6---6---4---4---4---4---1---1---1---1  3----------|
G|---5---5---5---5---7---7---7---7---5---5---5---5---1---1---1---1  3----------| 3x
D|-----------------------------------------------------------------------------|
A|-----------------------------------------------------------------------------|
E|-----------------------------------------------------------------------------|
      G#  G#  C  C   A#  A#  A#  A#  G#  G#  C   C   Fm
e|---4---4---3---3---6---6---6---6---4---4---3---3---1-----------------------|
B|---4---4---4---4---6---6---6---6---4---4---4---4---1-----------------------|
G|---5---5---5---5---7---7---7---7---5---5---5---5---1-----------------------|
D|---------------------------------------------------------------------------|
A|---------------------------------------------------------------------------|
E|---------------------------------------------------------------------------|

Chorus
e|-----------------------------------------------------------------------------|
B|------------10-10-10------------9-9-9-----------7-7-7-----------9-9-9--------|
G|---11-11-11----------119-9-9-9-------98-8-8-8-------8/9-9-9-9-------9--------| 4x
D|-----------------------------------------------------------------------------|
A|-----------------------------------------------------------------------------|
E|-----------------------------------------------------------------------------|
Verse
      G#  G#  C  C   A#  A#  A#  A#  G#  G#  C   C   Fm  Fm  Fm  Fm  G
e|---4---4---3---3---6---6---6---6---4---4---3---3---1---1---1---1  3----------|
B|---4---4---4---4---6---6---6---6---4---4---4---4---1---1---1---1  3----------|
G|---5---5---5---5---7---7---7---7---5---5---5---5---1---1---1---1  3----------| 4x
D|-----------------------------------------------------------------------------|
A|-----------------------------------------------------------------------------|
E|-----------------------------------------------------------------------------|

[ Tab from: http://www.guitartabs.cc/tabs/m/matisyahu/king_without_a_crown_tab_ver_7.html ]
      G#  G#  C  C   A#  A#  A#  A#  G#  G#  C   C   Fm
e|---4---4---3---3---6---6---6---6---4---4---3---3---1-----------------------|
B|---4---4---4---4---6---6---6---6---4---4---4---4---1-----------------------|
G|---5---5---5---5---7---7---7---7---5---5---5---5---1-----------------------|
D|---------------------------------------------------------------------------|
A|---------------------------------------------------------------------------|
E|---------------------------------------------------------------------------|

Chorus
e|-----------------------------------------------------------------------------|
B|------------10-10-10------------9-9-9-----------7-7-7-----------9-9-9--------|
G|---11-11-11----------119-9-9-9-------98-8-8-8-------8/9-9-9-9-------9--------| 4x
D|-----------------------------------------------------------------------------|
A|-----------------------------------------------------------------------------|
E|-----------------------------------------------------------------------------|

SOLO IN D DORIAN

BREAKDOWN
   F#m           E          B             C#m
e|-9------9------7-7-7------7------7------9--9--9-----------------------------|
B|-10-----10-----9-9-9------7------7------9--9--9-----------------------------|
G|-11-----11-----9-9-9------8------8------9--9--9-----------------------------| 3x
D|-11-----11-----9-9-9------9------9------11-11-11----------------------------|
A|-9------9------7-7-7------9------9------11-11-11----------------------------|
E|--------------------------7------7------9--9--9-----------------------------|

   F#m           E          B             C#m
e|-9------9------7-7-7------7------7------9-----------------------------------|
B|-10-----10-----9-9-9------7------7------9-----------------------------------|
G|-11-----11-----9-9-9------8------8------9-----------------------------------|
D|-11-----11-----9-9-9------9------9------11----------------------------------|
A|-9------9------7-7-7------9------9------11----------------------------------|
E|--------------------------7------7------9-----------------------------------|
Chorus
e|-----------------------------------------------------------------------------|
B|------------10-10-10------------9-9-9-----------7-7-7-----------9-9-9--------|
G|---11-11-11----------119-9-9-9-------98-8-8-8-------8/9-9-9-9-------9--------| 4x
D|-----------------------------------------------------------------------------|
A|-----------------------------------------------------------------------------|
E|-----------------------------------------------------------------------------|


THE REST IS FOR THE “LIVE AT STUBBS” VERSOIN

   F#m           E          B             C#m
e|-9------9------7-7-7------7------7------9--9--9-----------------------------|
B|-10-----10-----9-9-9------7------7------9--9--9-----------------------------|
G|-11-----11-----9-9-9------8------8------9--9--9-----------------------------| 3x
D|-11-----11-----9-9-9------9------9------11-11-11----------------------------|
A|-9------9------7-7-7------9------9------11-11-11----------------------------|
E|--------------------------7------7------9--9--9-----------------------------|

   F#m           E          B             C#m
e|-9------9------7-7-7------7------7------9-----------------------------------|
B|-10-----10-----9-9-9------7------7------9-----------------------------------|
G|-11-----11-----9-9-9------8------8------9-----------------------------------|
D|-11-----11-----9-9-9------9------9------11----------------------------------|
A|-9------9------7-7-7------9------9------11----------------------------------|
E|--------------------------7------7------9-----------------------------------|

| /  slide up
|   slide down
| h  hammer-on
| p  pull-off
| ~  vibrato
| +  harmonic
| x  Mute note
===============================================================================