Matisyahu - King Without A Crown Chords & Tabs

 

King Without A Crown Chords & Tabs

Matisyahu Chords & Tabs

Version: 1 Type: Tab 0 ratings
1 star 2 stars 3 stars 4 stars 5 stars
comments

King Without A Crown Tab

   
Matisyahu
King Without A Crown
(studio version)


Verse:

     G#      Cm     Fm    
e----4---4---3---3---1---1---1---1---1-|
B----4---4---4---4---1---1---1---1---1-|
G----5---5---5---5---1---1---1---1---1-|
D--------------------------------------|
A--------------------------------------|
E--------------------------------------|


Chorus:
[ Tab from: http://www.guitartabs.cc/tabs/m/matisyahu/king_without_a_crown_tab.html ]
e------------------------------------------|
B------9-9-9-9-9-9---8-8-8-8--6------------|
G----8-------------8-----------8-8-8-8-----|
D------------------------------------------|
A------------------------------------------|
E------------------------------------------|

e---------------------------------------------------|
B--6---6-6-6-6-6---------8-8-8-8-8-8-8-8------------|
G----7------------7-7-8-----------------------------| (x4)
D---------------------------------------------------|
A---------------------------------------------------|
E---------------------------------------------------|
Comments