Matisyahu - Exaltation Chords & Tabs

 

Exaltation Chords & Tabs

Matisyahu Chords & Tabs

Version: 1 Type: Tab 0 ratings
1 star 2 stars 3 stars 4 stars 5 stars
comments

Exaltation Tab

   
Matisyahu
Exaltation




Verse:

    Cm       F
e----3---3---1---1----|
B----4---4---1---1----|
G----5---5---2---2----|
D---------------------|
A---------------------|
E---------------------|


Chorus:
[ Tab from: http://www.guitartabs.cc/tabs/m/matisyahu/exaltation_tab.html ]
    Cm       F      Dm      Cm
e----3---3---1---1---5---5---3---3----|
B----4---4---1---1---6---6---4---4----|
G----5---5---2---2---7---7---5---5----|
D-------------------------------------|
A-------------------------------------|
E-------------------------------------|
Comments