Matisyahu - Chop Em Down Chords & Tabs

 

Chop Em Down Chords & Tabs

Matisyahu Chords & Tabs

Version: 1 Type: Tab 0 ratings
1 star 2 stars 3 stars 4 stars 5 stars
comments

Chop Em Down Tab

Matisyahu
Chop 'em Down


Intro:
[ Tab from: http://www.guitartabs.cc/tabs/m/matisyahu/chop_em_down_tab.html ]
e-------------------------------------------------|
B-------------------------------------------------|
G-------------------------------------------------|
D--------2---0--2---------------2--0--2--5--------|
A--0--3------------2------0--3--------------------|
E-------------------------------------------------|





Verse and Chorus:

e-----5--5--5--5--7--7--7--7--|
B-----5--5--5--5--7--7--7--7--|
G-----5--5--5--5--7--7--7--7--|
D-----------------------------|
A-----------------------------|
E-----------------------------|
Comments