Matches The - Destination Nowhere Near Chords & Tabs

 

Destination Nowhere Near Chords & Tabs

Matches The Chords & Tabs

Version: 1 Type: Tab 0 ratings
1 star 2 stars 3 stars 4 stars 5 stars
comments

Destination Nowhere Near Tab

E||------------------|------------------|------------------|------------------|
B||------------------|------------------|------------------|------------------|
G||------------------|------------------|------------------|------------------|
D||------------------|------------------|------------------|------------------|
A||------------------|------------------|------------------|------------------|
E||------------------|------------------|------------------|------------------|



                                                                            


------------------|------------------|------------------|------------------|
------------------|------------------|------------------|------------------|
------------------|------------------|------------------|------------------|
------------------|------------------|------------------|------------------|
------------------|------------------|------------------|------------------|
------------------|------------------|------------------|------------------|




                                                                            
------------------|------------------|------------------|------------------|
------------------|------------------|------------------|------------------|
------------------|------------------|------------------|------------------|
------------------|------------------|------------------|------------------|
------------------|------------------|------------------|------------------|
------------------|------------------|------------------|------------------|


                                                          
------------------|------------------|-------------------|
------------------|------------------|-------------------|
------------------|------------------|--9----------------|
------------------|------------------|-------------------|
------------------|------------------|--7----------------|
------------------|------------------|-------------------|




                                                                  
--------------------------------------|--------------------------|
--------------------------------------|--------------------------|
--9--9--9--9--9--9--9--9--9--9--9--9--|--------------------------|
--9--9--9--9--9--9--9--9--9--9--9--9--|--7-----7-----7-----7-----|
--7--7--7--7--7--7--7--7--7--7--7--7--|--7-----7-----7-----7-----|
--0--0--0--0--0--0--0--0--0--0--0--0--|--5--0--5--0--5--0--5--0--|


                                                                     

--------------------------|--------------------|--------------------|
--------------------------|--------------------|--------------------|
--------------------------|------7--------7----|------9--------9----|
--7-----7-----7-----7-----|------7--------7----|------9--------9----|
--7-----7-----7-----7-----|------5--------5----|------7--------7----|
--5--0--5--0--5--0--5--0--|--------------------|--------------------|


                                                                           
--------------------------|--------------------------|--------------------|
--------------------------|--------------------------|--------------------|
--------------------------|--------------------------|------7--------7----|
--7-----7-----7-----7-----|--7-----7-----7-----7-----|------7--------7----|
--7-----7-----7-----7-----|--7-----7-----7-----7-----|------5--------5----|
--5--0--5--0--5--0--5--0--|--5--0--5--0--5--0--5--0--|--------------------|


                                                              


--------------------|---------------------|------------------|
--------------------|---------------------|------------------|
------9--------9----|---------------------|------------------|
------9--------9----|--4----4----4--------|------------------|
------7--------7----|--4----4----4--------|------------------|
--------------------|--2----2----2--------|------------------|


                                                                  

-------------------0--|--------------------|---------------------|
-------------------0--|--------------------|---------------------|
--2----2----2---------|--------------------|---------------------|
--2----2----2---------|--------------------|--4----4----4--------|
--0----0----0---------|--------------------|--4----4----4--------|
----------------------|------------5--4----|--2----2----2--------|


                                                                               
------------------|--------------------|--------------------------------------|
------------------|--------------------|--------------------------------------|
------------------|------2--------2----|--9--9--9--9--9--9--9--9--9--9--9--9--|
------------------|------2--------2----|--9--9--9--9--9--9--9--9--9--9--9--9--|
------------------|------0--------0----|--7--7--7--7--7--7--7--7--7--7--7--7--|
------------------|--------------------|--0--0--0--0--0--0--0--0--0--0--0--0--|


                                                      
--------------------------|--------------------------|
--------------------------|--------------------------|
--6-----6-----6-----6-----|--7-----7-----7-----7-----|
--6-----6-----6-----6-----|--7-----7-----7-----7-----|
--4--0--4--0--4--0--4--0--|--5--0--5--0--5--0--5--0--|
--------------------------|--------------------------|


                                                                

--------------------------|------------------------------------|
--------------------------|--10--10--10--10--10--10--9----9----|
--------------------------|------------------------------------|
--7-----7-----7-----7-----|--7---7---7---7---7---7---6----6----|
--7-----7-----7-----7-----|------------------------------------|
--5--0--5--0--5--0--5--0--|------------------------------------|


                                                      
--------------------------|--------------------------|
--------------------------|--------------------------|
--6-----6-----6-----6-----|--7-----7-----7-----7-----|
--6-----6-----6-----6-----|--7-----7-----7-----7-----|
--4--0--4--0--4--0--4--0--|--5--0--5--0--5--0--5--0--|
--------------------------|--------------------------|


                                                                          
--------------------------|--------------------------|-------------------|
--------------------------|--------------------------|-------------------|
--------------------------|--------------------------|--6----------------|
--7-----7-----7-----7-----|--7-----7-----7-----7-----|-------------------|
--7-----7-----7-----7-----|--7-----7-----7-----7-----|--4----------------|
--5--0--5--0--5--0--5--0--|--5--0--5--0--5--0--5--0--|-------------------|


                                                                                
-------------------|-------------------|-------------------|-------------------|
-------------------|-------------------|-------------------|-------------------|
--7----------------|--6----------------|--7----------------|--6----------------|
-------------------|-------------------|-------------------|-------------------|
--5----------------|--4----------------|--5----------------|--4----------------|
-------------------|-------------------|-------------------|-------------------|


                                             
-------------------|------------------------|
-------------------|------------------------|
--7----------------|--9----9----11----11----|
-------------------|------------------------|
--5----------------|--7----7----9-----9-----|
-------------------|------------------------|




                                                                              

--------------------------------------------------|--------------------------|
--------------------------------------------------|--------------------------|
--13--13--13--13--13--13--14--14--14--14--14--14--|--------------------------|
--------------------------------------------------|--7-----7-----7-----7-----|
--11--11--11--11--11--11--12--12--12--12--12--12--|--7-----7-----7-----7-----|
--0---0---0---0---0---0---0---0---0---0---0---0---|--5--0--5--0--5--0--5--0--|


                                                                     
--------------------------|--------------------|--------------------|
--------------------------|--------------------|--------------------|
--------------------------|------7--------7----|------9--------9----|
--7-----7-----7-----7-----|------7--------7----|------9--------9----|
--7-----7-----7-----7-----|------5--------5----|------7--------7----|
--5--0--5--0--5--0--5--0--|--------------------|--------------------|


                                                                           
--------------------------|--------------------------|--------------------|
--------------------------|--------------------------|--------------------|
--------------------------|--------------------------|------7--------7----|
--7-----7-----7-----7-----|--7-----7-----7-----7-----|------7--------7----|
--7-----7-----7-----7-----|--7-----7-----7-----7-----|------5--------5----|
--5--0--5--0--5--0--5--0--|--5--0--5--0--5--0--5--0--|--------------------|


                                                              
--------------------|---------------------|------------------|
--------------------|---------------------|------------------|
------9--------9----|---------------------|------------------|
------9--------9----|--4----4----4--------|------------------|
------7--------7----|--4----4----4--------|------------------|
--------------------|--2----2----2--------|------------------|




                                                                  
-------------------0--|--------------------|---------------------|
-------------------0--|--------------------|---------------------|
--2----2----2---------|--------------------|---------------------|
--2----2----2---------|--------------------|--4----4----4--------|
--0----0----0---------|--------------------|--4----4----4--------|
----------------------|------------5--4----|--2----2----2--------|

[ Tab from: http://www.guitartabs.cc/tabs/m/matches_the/destination_nowhere_near_tab.html ]
                                                                               
------------------|--------------------|--------------------------------------|
------------------|--------------------|--------------------------------------|
------------------|------2--------2----|--9--9--9--9--9--9--9--9--9--9--9--9--|
------------------|------2--------2----|--9--9--9--9--9--9--9--9--9--9--9--9--|
------------------|------0--------0----|--7--7--7--7--7--7--7--7--7--7--7--7--|
------------------|--------------------|--0--0--0--0--0--0--0--0--0--0--0--0--|


                                                      
--------------------------|--------------------------|
--------------------------|--------------------------|
--6-----6-----6-----6-----|--7-----7-----7-----7-----|
--6-----6-----6-----6-----|--7-----7-----7-----7-----|
--4--0--4--0--4--0--4--0--|--5--0--5--0--5--0--5--0--|
--------------------------|--------------------------|


                                                                
--------------------------|------------------------------------|
--------------------------|--10--10--10--10--10--10--9----9----|
--------------------------|------------------------------------|
--7-----7-----7-----7-----|--7---7---7---7---7---7---6----6----|
--7-----7-----7-----7-----|------------------------------------|
--5--0--5--0--5--0--5--0--|------------------------------------|


                                                      
--------------------------|--------------------------|
--------------------------|--------------------------|
--6-----6-----6-----6-----|--7-----7-----7-----7-----|
--6-----6-----6-----6-----|--7-----7-----7-----7-----|
--4--0--4--0--4--0--4--0--|--5--0--5--0--5--0--5--0--|
--------------------------|--------------------------|


                                                                          
--------------------------|--------------------------|-------------------|
--------------------------|--------------------------|-------------------|
--------------------------|--------------------------|--6----------------|
--7-----7-----7-----7-----|--7-----7-----7-----7-----|-------------------|
--7-----7-----7-----7-----|--7-----7-----7-----7-----|--4----------------|
--5--0--5--0--5--0--5--0--|--5--0--5--0--5--0--5--0--|-------------------|


                                                                                
-------------------|-------------------|-------------------|-------------------|
-------------------|-------------------|-------------------|-------------------|
--7----------------|--6----------------|--7----------------|--6----------------|
-------------------|-------------------|-------------------|-------------------|
--5----------------|--4----------------|--5----------------|--4----------------|
-------------------|-------------------|-------------------|-------------------|


                                             
-------------------|------------------------|
-------------------|------------------------|
--7----------------|--9----9----11----11----|
-------------------|------------------------|
--5----------------|--7----7----9-----9-----|
-------------------|------------------------|



                                                                        
--------------------------------------------------|--------------------|
--------------------------------------------------|--------------------|
--13--13--13--13--13--13--14--14--14--14--14--14--|--10----------------|
--------------------------------------------------|--------------------|
--11--11--11--11--11--11--12--12--12--12--12--12--|--8-----------------|
--0---0---0---0---0---0---0---0---0---0---0---0---|--------------------|


                                                                            
------------------|------------------|------------------|------------------|
------------------|------------------|------------------|------------------|
------------------|------------------|------------------|------------------|
------------------|------------------|------------------|------------------|
------------------|------------------|------------------|------------------|
------------------|------------------|------------------|------------------|




                                                                         
------------------|------13--------------|------------------------------|
------------------|--------------13------|----10--11--10----------------|
------------------|----------------------|----------------12--10--10----|
------------------|----------------------|------------------------------|
------------------|----------------------|------------------------------|
------------------|----------------------|------------------------------|




                                                                    
-----------------------|----------------------|--------------------|
-----------------------|----------------------|--------------------|
-----------------------|----------------------|--------------------|
-----------------------|------------3----2----|--------------------|
------------0--0----1--|----3----3------------|--3--------------3--|
--1------1-------------|----------------------|--------------------|


                                                                      


-----------------------|----------------------|----------------------|
-----------------------|----------------------|----------------------|
-----------------------|----------------------|----------------------|
--3--3----2----0-------|---------3--3---------|-------3----3---------|
--------------------3--|--1--------------1----|--1--------------1----|
-----------------------|----------------------|----------------------|


                                                                      
----------------------|----------------------|-----------------------|
----------------------|----------------------|-----------------------|
----------------------|----------------------|-----------------------|
----------------------|----------------------|-----------------------|
--0----1----0----1----|--3----1----0---------|------------0--0----1--|
----------------------|-----------------3----|--1------1-------------|



                                                                    
----------------------|--------------------|-----------------------|
----------------------|--------------------|-----------------------|
----------------------|--------------------|-----------------------|
------------3----2----|--------------------|--3--3----2----0-------|
----3----3------------|--3--------------3--|--------------------3--|
----------------------|--------------------|-----------------------|


                                              
----------------------|----------------------|
----------------------|----------------------|
----------------------|----------------------|
---------3--3---------|-------3----3---------|
--1--------------1----|--1--------------1----|
----------------------|----------------------|


                                                            
--------------------------------------|--------------------|
--------------------------------------|--------------------|
--------------------------------------|---------------9----|
--2--2--2--2--2--2--2--2--2--2--2--2--|--2-----------------|
--0--0--0--0--0--0--0--0--0--0--0--0--|--0------------7----|
--------------------------------------|--------------------|



                                                      
--------------------------|--------------------------|
--------------------------|--------------------------|
--6-----6-----6-----6-----|--7-----7-----7-----7-----|
--6-----6-----6-----6-----|--7-----7-----7-----7-----|
--4--0--4--0--4--0--4--0--|--5--0--5--0--5--0--5--0--|
--------------------------|--------------------------|


                                                                
--------------------------|------------------------------------|
--------------------------|--10--10--10--10--10--10--9----9----|
--------------------------|------------------------------------|
--7-----7-----7-----7-----|--7---7---7---7---7---7---6----6----|
--7-----7-----7-----7-----|------------------------------------|
--5--0--5--0--5--0--5--0--|------------------------------------|


                                                      
--------------------------|--------------------------|
--------------------------|--------------------------|
--6-----6-----6-----6-----|--7-----7-----7-----7-----|
--6-----6-----6-----6-----|--7-----7-----7-----7-----|
--4--0--4--0--4--0--4--0--|--5--0--5--0--5--0--5--0--|
--------------------------|--------------------------|


                                                                          
--------------------------|--------------------------|-------------------|
--------------------------|--------------------------|-------------------|
--------------------------|--------------------------|--6----------------|
--7-----7-----7-----7-----|--7-----7-----7-----7-----|-------------------|
--7-----7-----7-----7-----|--7-----7-----7-----7-----|--4----------------|
--5--0--5--0--5--0--5--0--|--5--0--5--0--5--0--5--0--|-------------------|


                                                                                
-------------------|-------------------|-------------------|-------------------|
-------------------|-------------------|-------------------|-------------------|
--7----------------|--6----------------|--7----------------|--6----------------|
-------------------|-------------------|-------------------|-------------------|
--5----------------|--4----------------|--5----------------|--4----------------|
-------------------|-------------------|-------------------|-------------------|


                                             
-------------------|------------------------|
-------------------|------------------------|
--7----------------|--9----9----11----11----|
-------------------|------------------------|
--5----------------|--7----7----9-----9-----|
-------------------|------------------------|


                                                                         
--------------------------------------------------|--------------------||
--------------------------------------------------|--------------------||
--13--13--13--13--13--13--14--14--14--14--14--14--|--14----------------||
--------------------------------------------------|--------------------||
--11--11--11--11--11--11--12--12--12--12--12--12--|--12----------------||
--0---0---0---0---0---0---0---0---0---0---0---0---|--------------------||


Comments