Matches - Sick Little Suicide Chords & Tabs

 

Sick Little Suicide Chords & Tabs

Matches Chords & Tabs

Version: 3 Type: Tab 0 ratings
1 star 2 stars 3 stars 4 stars 5 stars
comments

Sick Little Suicide Tab

E||--------------------------|--------------------------|
B||--------------------------|--5--5--5--5--------------|
G||--4--4--4--4--------------|--5--5--5--5--7--7--5--5--|
D||--5--5--5--5--7--7--5--5--|--5--5--5--5--5--5--4--4--|
A||--7--7--7--7--5--5--7--7--|--x--x--x--x--7--7--5--5--|
E||--------------7--7--7--7--|--5--5--5--5--------------|


                                                      
--------------------------|--------------------------|
--------------------------|--5--5--5--5--------------|
--4--4--4--4--------------|--5--5--5--5--7--7--5--5--|
--5--5--5--5--7--7--5--5--|--5--5--5--5--5--5--4--4--|
--7--7--7--7--5--5--7--7--|--x--x--x--x--7--7--5--5--|
--------------7--7--7--7--|--5--5--5--5--------------|


                                                      
--------------------------|--------------------------|
--------------------------|--5--5--5--5--------------|
--4--4--4--4--------------|--5--5--5--5--7--7--5--5--|
--5--5--5--5--7--7--5--5--|--5--5--5--5--5--5--4--4--|
--7--7--7--7--5--5--7--7--|--x--x--x--x--7--7--5--5--|
--------------7--7--7--7--|--5--5--5--5--------------|


                                                        
--0--0---------------------|---------------------------|
--0--0---------------------|---------------------------|
--0--0---------------------|--5--5---------------------|
--2--2-------4-4-4-4-5-5-5-|--5--5-------4-4-4-4-5-5-5-|
--2--2-------5-5-5-5-5-5-5-|--3--3-------5-5-5-5-5-5-5-|
--0--0-------2-2-2-2-3-3-3-|-------------2-2-2-2-3-3-3-|


                                                            
--0--0---------------------|-------------------------------|
--0--0---------------------|-------------------------------|
--0--0---------------------|--5--5--5-5-5-5----------------|
--2--2-------4-4-4-4-5-5-5-|--5--5--5-5-5-5--4-4-4-4-5-5-5-|
--2--2-------5-5-5-5-5-5-5-|--3--3--3-3-3-3--5-5-5-5-5-5-5-|
--0--0-------2-2-2-2-3-3-3-|-----------------2-2-2-2-3-3-3-|


                                                      
--------------------------|--------------------------|
--------------------------|--5--5--5--5--------------|
--4--4--4--4--------------|--5--5--5--5--7--7--5--5--|
--5--5--5--5--7--7--5--5--|--5--5--5--5--5--5--4--4--|
--7--7--7--7--5--5--7--7--|--x--x--x--x--7--7--5--5--|
--------------7--7--7--7--|--5--5--5--5--------------|


                                                      
--------------------------|--------------------------|
--------------------------|--5--5--5--5--------------|
--4--4--4--4--------------|--5--5--5--5--7--7--5--5--|
--5--5--5--5--7--7--5--5--|--5--5--5--5--5--5--4--4--|
--7--7--7--7--5--5--7--7--|--x--x--x--x--7--7--5--5--|
--------------7--7--7--7--|--5--5--5--5--------------|




                                                      
--------------------------|--------------------------|
--------------------------|--5--5--5--5--------------|
--4--4--4--4--------------|--5--5--5--5--7--7--5--5--|
--5--5--5--5--7--7--5--5--|--5--5--5--5--5--5--4--4--|
--7--7--7--7--5--5--7--7--|--x--x--x--x--7--7--5--5--|
--------------7--7--7--7--|--5--5--5--5--------------|


                                                      
--------------------------|--------------------------|
--------------------------|--5--5--5--5--------------|
--4--4--4--4--------------|--5--5--5--5--7--7--5--5--|
--5--5--5--5--7--7--5--5--|--5--5--5--5--5--5--4--4--|
--7--7--7--7--5--5--7--7--|--x--x--x--x--7--7--5--5--|
--------------7--7--7--7--|--5--5--5--5--------------|


                                                        
--0--0---------------------|---------------------------|
--0--0---------------------|---------------------------|
--0--0---------------------|--5--5---------------------|
--2--2-------4-4-4-4-5-5-5-|--5--5-------4-4-4-4-5-5-5-|
--2--2-------5-5-5-5-5-5-5-|--3--3-------5-5-5-5-5-5-5-|
--0--0-------2-2-2-2-3-3-3-|-------------2-2-2-2-3-3-3-|




                                                            
--0--0---------------------|-------------------------------|
--0--0---------------------|-------------------------------|
--0--0---------------------|--5--5--5-5-5-5----------------|
--2--2-------4-4-4-4-5-5-5-|--5--5--5-5-5-5--4-4-4-4-5-5-5-|
--2--2-------5-5-5-5-5-5-5-|--3--3--3-3-3-3--5-5-5-5-5-5-5-|
--0--0-------2-2-2-2-3-3-3-|-----------------2-2-2-2-3-3-3-|


                                                        
--0--0---------------------|---------------------------|
--0--0---------------------|---------------------------|
--0--0---------------------|--5--5---------------------|
--2--2-------4-4-4-4-5-5-5-|--5--5-------4-4-4-4-5-5-5-|
--2--2-------5-5-5-5-5-5-5-|--3--3-------5-5-5-5-5-5-5-|
--0--0-------2-2-2-2-3-3-3-|-------------2-2-2-2-3-3-3-|


                                                            
--0--0---------------------|-------------------------------|
--0--0---------------------|-------------------------------|
--0--0---------------------|--5--5--5-5-5-5--5-5-5-5-5-5-5-|
--2--2-------4-4-4-4-5-5-5-|--5--5--5-5-5-5--5-5-5-5-5-5-5-|
--2--2-------5-5-5-5-5-5-5-|--3--3--3-3-3-3--3-3-3-3-3-3-3-|
--0--0-------2-2-2-2-3-3-3-|-------------------------------|



                                                                           
------------------------|------------------------|------------------------|
------------------------|------------------------|------------------------|
----0--0----------------|----2--2--4--4--5--5----|----0--0----------------|
----2--2--4--4--5--5----|----2--2--4--4--5--5----|----2--2--4--4--5--5----|
----2--2--4--4--5--5----|----0--0--2--2--3--3----|----2--2--4--4--5--5----|
----0--0--2--2--3--3----|------------------------|----0--0--2--2--3--3----|


                                                                           
------------------------|------------------------|------------------------|
------------------------|------------------------|------------------------|
----2--2--4--4--5--5----|----0--0----------------|----2--2--4--4--5--5----|
----2--2--4--4--5--5----|----2--2--4--4--5--5----|----2--2--4--4--5--5----|
----0--0--2--2--3--3----|----2--2--4--4--5--5----|----0--0--2--2--3--3----|
------------------------|----0--0--2--2--3--3----|------------------------|



                                                                           
------------------------|------------------------|------------------------|
------------------------|------------------------|------------------------|
----0--0----------------|----2--2--4--4--5--5----|----0--0----------------|
----2--2--4--4--5--5----|----2--2--4--4--5--5----|----2--2--4--4--5--5----|
----2--2--4--4--5--5----|----0--0--2--2--3--3----|----2--2--4--4--5--5----|
----0--0--2--2--3--3----|------------------------|----0--0--2--2--3--3----|


                                                        
---------------------------|--0--0---------------------|
---------------------------|--0--0---------------------|
--7-7-7-7-7-7-7-7-7--------|--0--0---------------------|
--7-7-7-7-7-7-7-7-7--------|--2--2-------4-4-4-4-5-5-5-|
--5-5-5-5-5-5-5-5-5--------|--2--2-------5-5-5-5-5-5-5-|
---------------------------|--0--0-------2-2-2-2-3-3-3-|


                                                        
---------------------------|--0--0---------------------|
---------------------------|--0--0---------------------|
--5--5---------------------|--0--0---------------------|
--5--5-------4-4-4-4-5-5-5-|--2--2-------4-4-4-4-5-5-5-|
--3--3-------5-5-5-5-5-5-5-|--2--2-------5-5-5-5-5-5-5-|
-------------2-2-2-2-3-3-3-|--0--0-------2-2-2-2-3-3-3-|


                                                           
-------------------------------|--------------------------|
-------------------------------|--------------------------|
--5--5--5-5-5-5----------------|--4--4--4--4--------------|
--5--5--5-5-5-5--4-4-4-4-5-5-5-|--5--5--5--5--7--7--5--5--|
--3--3--3-3-3-3--5-5-5-5-5-5-5-|--7--7--7--7--5--5--7--7--|
-----------------2-2-2-2-3-3-3-|--------------7--7--7--7--|



                                                      


--------------------------|--------------------------|
--5--5--5--5--------------|--------------------------|
--5--5--5--5--7--7--5--5--|--4--4--4--4--------------|
--5--5--5--5--5--5--4--4--|--5--5--5--5--7--7--5--5--|
--x--x--x--x--7--7--5--5--|--7--7--7--7--5--5--7--7--|
--5--5--5--5--------------|--------------7--7--7--7--|


                                                      
--------------------------|--------------------------|
--5--5--5--5--------------|--------------------------|
--5--5--5--5--7--7--5--5--|--4--4--4--4--------------|
--5--5--5--5--5--5--4--4--|--5--5--5--5--7--7--5--5--|
--x--x--x--x--7--7--5--5--|--7--7--7--7--5--5--7--7--|
--5--5--5--5--------------|--------------7--7--7--7--|


                                                      
--------------------------|--------------------------|
--5--5--5--5--------------|--------------------------|
--5--5--5--5--7--7--5--5--|--4--4--4--4--------------|
--5--5--5--5--5--5--4--4--|--5--5--5--5--7--7--5--5--|
--x--x--x--x--7--7--5--5--|--7--7--7--7--5--5--7--7--|
--5--5--5--5--------------|--------------7--7--7--7--|


                                                       


--------------------------|--0--0---------------------|
--5--5--5--5--------------|--0--0---------------------|
--5--5--5--5--7--7--5--5--|--0--0---------------------|
--5--5--5--5--5--5--4--4--|--2--2-------4-4-4-4-5-5-5-|
--x--x--x--x--7--7--5--5--|--2--2-------5-5-5-5-5-5-5-|
--5--5--5--5--------------|--0--0-------2-2-2-2-3-3-3-|


                                                        
---------------------------|--0--0---------------------|
---------------------------|--0--0---------------------|
--5--5---------------------|--0--0---------------------|
--5--5-------4-4-4-4-5-5-5-|--2--2-------4-4-4-4-5-5-5-|
--3--3-------5-5-5-5-5-5-5-|--2--2-------5-5-5-5-5-5-5-|
-------------2-2-2-2-3-3-3-|--0--0-------2-2-2-2-3-3-3-|


                                                            
-------------------------------|--0--0---------------------|
-------------------------------|--0--0---------------------|
--5--5--5-5-5-5----------------|--0--0---------------------|
--5--5--5-5-5-5--4-4-4-4-5-5-5-|--2--2-------4-4-4-4-5-5-5-|
--3--3--3-3-3-3--5-5-5-5-5-5-5-|--2--2-------5-5-5-5-5-5-5-|
-----------------2-2-2-2-3-3-3-|--0--0-------2-2-2-2-3-3-3-|


                                                        
---------------------------|--0--0---------------------|
---------------------------|--0--0---------------------|
--5--5---------------------|--0--0---------------------|
--5--5-------4-4-4-4-5-5-5-|--2--2-------4-4-4-4-5-5-5-|
--3--3-------5-5-5-5-5-5-5-|--2--2-------5-5-5-5-5-5-5-|
-------------2-2-2-2-3-3-3-|--0--0-------2-2-2-2-3-3-3-|



                                                         
-------------------------------|------------------------|
-------------------------------|------------------------|
--5--5--5-5-5-5--5-5-5-5-5-5-5-|----0--0----------------|
--5--5--5-5-5-5--5-5-5-5-5-5-5-|----2--2--4--4--5--5----|
--3--3--3-3-3-3--3-3-3-3-3-3-3-|----2--2--4--4--5--5----|
-------------------------------|----0--0--2--2--3--3----|



                                                                           
------------------------|------------------------|------------------------|
------------------------|------------------------|------------------------|
----2--2--4--4--5--5----|----0--0----------------|----2--2--4--4--5--5----|
----2--2--4--4--5--5----|----2--2--4--4--5--5----|----2--2--4--4--5--5----|
----0--0--2--2--3--3----|----2--2--4--4--5--5----|----0--0--2--2--3--3----|
------------------------|----0--0--2--2--3--3----|------------------------|


                                                                           
------------------------|------------------------|------------------------|
------------------------|------------------------|------------------------|
----0--0----------------|----2--2--4--4--5--5----|----0--0----------------|
----2--2--4--4--5--5----|----2--2--4--4--5--5----|----2--2--4--4--5--5----|
----2--2--4--4--5--5----|----0--0--2--2--3--3----|----2--2--4--4--5--5----|
----0--0--2--2--3--3----|------------------------|----0--0--2--2--3--3----|


[ Tab from: http://www.guitartabs.cc/tabs/m/matches/sick_little_suicide_tab_ver_3.html ]
                                                                              
------------------------|------------------------|--------------------------
------------------------|------------------------|--------------------------
----2--2--4--4--5--5----|----0--0----------------|--7-7-7-7-7-7-7-7-7-------
----2--2--4--4--5--5----|----2--2--4--4--5--5----|--7-7-7-7-7-7-7-7-7-------
----0--0--2--2--3--3----|----2--2--4--4--5--5----|--5-5-5-5-5-5-5-5-5-------
------------------------|----0--0--2--2--3--3----|--------------------------


                                                        
--0--0---------------------|---------------------------|
--0--0---------------------|---------------------------|
--0--0---------------------|--5--5---------------------|
--2--2-------4-4-4-4-5-5-5-|--5--5-------4-4-4-4-5-5-5-|
--2--2-------5-5-5-5-5-5-5-|--3--3-------5-5-5-5-5-5-5-|
--0--0-------2-2-2-2-3-3-3-|-------------2-2-2-2-3-3-3-|



                                                            
--0--0---------------------|-------------------------------|
--0--0---------------------|-------------------------------|
--0--0---------------------|--5--5--5-5-5-5----------------|
--2--2-------4-4-4-4-5-5-5-|--5--5--5-5-5-5--4-4-4-4-5-5-5-|
--2--2-------5-5-5-5-5-5-5-|--3--3--3-3-3-3--5-5-5-5-5-5-5-|
--0--0-------2-2-2-2-3-3-3-|-----------------2-2-2-2-3-3-3-|




                                                                      
----------------------------------|----------------------------------|
--8-8-8-8-8-8-8-8-8-8-8-8-8-8-8-8-|--8-8-8-8-8-8-8-8-8-8-8-8-8-8-8-8-|
--9-9-9-9-9-9-9-9-9-9-9-9-9-9-9-9-|--7-7-7-7-7-7-7-7-7-7-7-7-7-7-7-7-|
--9-9-9-9-9-9-9-9-9-9-9-9-9-9-9-9-|--5-5-5-5-5-5-5-5-5-5-5-5-5-5-5-5-|
--7-7-7-7-7-7-7-7-7-7-7-7-7-7-7-7-|----------------------------------|
----------------------------------|----------------------------------|


                                                   
--------------------------------------------------|
--10-10-10-10-10-10-10-10-10-10-10-10-10-10-10-10-|
--9--9--9--9--9--9--9--9--9--9--9--9--9--9--9--9--|
--7--7--7--7--7--7--7--7--7--7--7--7--7--7--7--7--|
--------------------------------------------------|
--------------------------------------------------|


                                                   
--------------------------------------------------|
--13-13-13-13-13-13-13-13-13-13-13-13-13-13-13-13-|
--12-12-12-12-12-12-12-12-12-12-12-12-12-12-12-12-|
--10-10-10-10-10-10-10-10-10-10-10-10-10-10-10-10-|
--------------------------------------------------|
--------------------------------------------------|


                                                   
--10-10-10-10-10-10-10-10-10-10-10-10-10-10-10-10-|
--10-10-10-10-10-10-10-10-10-10-10-10-10-10-10-10-|
--7--7--7--7--7--7--7--7--7--7--7--7--7--7--7--7--|
--7--7--7--7--7--7--7--7--7--7--7--7--7--7--7--7--|
--------------------------------------------------|
--------------------------------------------------|


                                                   
--12-12-12-12-12-12-12-12-12-12-12-12-12-12-12-12-|
--12-12-12-12-12-12-12-12-12-12-12-12-12-12-12-12-|
--12-12-12-12-12-12-12-12-12-12-12-12-12-12-12-12-|
--9--9--9--9--9--9--9--9--9--9--9--9--9--9--9--9--|
--------------------------------------------------|
--------------------------------------------------|


                                                   
--15-15-15-15-15-15-15-15-15-15-15-15-15-15-15-15-|
--15-15-15-15-15-15-15-15-15-15-15-15-15-15-15-15-|
--12-12-12-12-12-12-12-12-12-12-12-12-12-12-12-12-|
--12-12-12-12-12-12-12-12-12-12-12-12-12-12-12-12-|
--------------------------------------------------|
--------------------------------------------------|


                                                   
--17-17-17-17-17-17-17-17-17-17-17-17-17-17-17-17-|
--17-17-17-17-17-17-17-17-17-17-17-17-17-17-17-17-|
--14-14-14-14-14-14-14-14-14-14-14-14-14-14-14-14-|
--14-14-14-14-14-14-14-14-14-14-14-14-14-14-14-14-|
--------------------------------------------------|
--------------------------------------------------|


                                                   
--------------------------------------------------|
--13-13-13-13-13-13-13-13-13-13-13-13-13-13-13-13-|
--12-12-12-12-12-12-12-12-12-12-12-12-12-12-12-12-|
--10-10-10-10-10-10-10-10-10-10-10-10-10-10-10-10-|
--------------------------------------------------|
--------------------------------------------------|


                                                                              
--10-10-10-10-10-10-10-10-10-10-10-10-10-10-10-10-|--7--7--7--7--7--7-------
--10-10-10-10-10-10-10-10-10-10-10-10-10-10-10-10-|--8--8--8--8--8--8--8-7--
--7--7--7--7--7--7--7--7--7--7--7--7--7--7--7--7--|--7--7--7--7--7--7--7-7--
--7--7--7--7--7--7--7--7--7--7--7--7--7--7--7--7--|--9--9--9--9--9--9--9-9--
--------------------------------------------------|--7--7--7--7--7--7--7-7--
--------------------------------------------------|-------------------------


                                                                    
---8--8--8---8--8--8---10-10-10-10-8----|--7--7--7--7--7--7--------|
---8--8--8---8--8--8---8--8--8--8--8----|--8--8--8--8--8--8--8-7---|
---9--9--9---9--9--9---9--9--9--9--9----|--7--7--7--7--7--7--7-7---|
---10-10-10--10-10-10--10-10-10-10-10---|--9--9--9--9--9--9--9-9---|
---8--8--8---8--8--8---8--8--8--8--8----|--7--7--7--7--7--7--7-7---|
----------------------------------------|--------------------------|


                                                                    
---8--8--8---8--8--8---10-10-10-10-8----|--7--7--7--7--7--7--------|
---8--8--8---8--8--8---8--8--8--8--8----|--8--8--8--8--8--8--8-7---|
---9--9--9---9--9--9---9--9--9--9--9----|--7--7--7--7--7--7--7-7---|
---10-10-10--10-10-10--10-10-10-10-10---|--9--9--9--9--9--9--9-9---|
---8--8--8---8--8--8---8--8--8--8--8----|--7--7--7--7--7--7--7-7---|
----------------------------------------|--------------------------|




                                                                    
---8--8--8---8--8--8---10-10-10-10-8----|--7--7--7--7--7--7--------|
---8--8--8---8--8--8---8--8--8--8--8----|--8--8--8--8--8--8--8-7---|
---9--9--9---9--9--9---9--9--9--9--9----|--7--7--7--7--7--7--7-7---|
---10-10-10--10-10-10--10-10-10-10-10---|--9--9--9--9--9--9--9-9---|
---8--8--8---8--8--8---8--8--8--8--8----|--7--7--7--7--7--7--7-7---|
----------------------------------------|--------------------------|


                                                                    
---8--8--8---8--8--8---10-10-10-10-8----|--7--7--7--7--7--7--------|
---8--8--8---8--8--8---8--8--8--8--8----|--8--8--8--8--8--8--8-7---|
---9--9--9---9--9--9---9--9--9--9--9----|--7--7--7--7--7--7--7-7---|
---10-10-10--10-10-10--10-10-10-10-10---|--9--9--9--9--9--9--9-9---|
---8--8--8---8--8--8---8--8--8--8--8----|--7--7--7--7--7--7--7-7---|
----------------------------------------|--------------------------|


                                                                    
---8--8--8---8--8--8---10-10-10-10-8----|--7--7--7--7--7--7--------|
---8--8--8---8--8--8---8--8--8--8--8----|--8--8--8--8--8--8--8-7---|
---9--9--9---9--9--9---9--9--9--9--9----|--7--7--7--7--7--7--7-7---|
---10-10-10--10-10-10--10-10-10-10-10---|--9--9--9--9--9--9--9-9---|
---8--8--8---8--8--8---8--8--8--8--8----|--7--7--7--7--7--7--7-7---|
----------------------------------------|--------------------------|


                                                                    
---8--8--8---8--8--8---10-10-10-10-8----|--7--7--7--7--7--7--------|
---8--8--8---8--8--8---8--8--8--8--8----|--8--8--8--8--8--8--8-7---|
---9--9--9---9--9--9---9--9--9--9--9----|--7--7--7--7--7--7--7-7---|
---10-10-10--10-10-10--10-10-10-10-10---|--9--9--9--9--9--9--9-9---|
---8--8--8---8--8--8---8--8--8--8--8----|--7--7--7--7--7--7--7-7---|
----------------------------------------|--------------------------|


                                                                    
---8--8--8---8--8--8---10-10-10-10-8----|--7--7--7--7--7--7--------|
---8--8--8---8--8--8---8--8--8--8--8----|--8--8--8--8--8--8--8-7---|
---9--9--9---9--9--9---9--9--9--9--9----|--7--7--7--7--7--7--7-7---|
---10-10-10--10-10-10--10-10-10-10-10---|--9--9--9--9--9--9--9-9---|
---8--8--8---8--8--8---8--8--8--8--8----|--7--7--7--7--7--7--7-7---|
----------------------------------------|--------------------------|


                                                                    
---8--8--8---8--8--8---10-10-10-10-8----|--7--7--7--7--7--7--------|
---8--8--8---8--8--8---8--8--8--8--8----|--8--8--8--8--8--8--8-7---|
---9--9--9---9--9--9---9--9--9--9--9----|--7--7--7--7--7--7--7-7---|
---10-10-10--10-10-10--10-10-10-10-10---|--9--9--9--9--9--9--9-9---|
---8--8--8---8--8--8---8--8--8--8--8----|--7--7--7--7--7--7--7-7---|
----------------------------------------|--------------------------|


                                                                     
---8--8--8---8--8--8---10-10-10-10-8----|--0--0---------------------|
---8--8--8---8--8--8---8--8--8--8--8----|--0--0---------------------|
---9--9--9---9--9--9---9--9--9--9--9----|--0--0---------------------|
---10-10-10--10-10-10--10-10-10-10-10---|--2--2-------4-4-4-4-5-5-5-|
---8--8--8---8--8--8---8--8--8--8--8----|--2--2-------5-5-5-5-5-5-5-|
----------------------------------------|--0--0-------2-2-2-2-3-3-3-|


                                                        
---------------------------|--0--0---------------------|
---------------------------|--0--0---------------------|
--5--5---------------------|--0--0---------------------|
--5--5-------4-4-4-4-5-5-5-|--2--2-------4-4-4-4-5-5-5-|
--3--3-------5-5-5-5-5-5-5-|--2--2-------5-5-5-5-5-5-5-|
-------------2-2-2-2-3-3-3-|--0--0-------2-2-2-2-3-3-3-|


                                                            
-------------------------------|--0--0---------------------|
-------------------------------|--0--0---------------------|
--5--5--5-5-5-5----------------|--0--0---------------------|
--5--5--5-5-5-5--4-4-4-4-5-5-5-|--2--2-------4-4-4-4-5-5-5-|
--3--3--3-3-3-3--5-5-5-5-5-5-5-|--2--2-------5-5-5-5-5-5-5-|
-----------------2-2-2-2-3-3-3-|--0--0-------2-2-2-2-3-3-3-|


                                                        
---------------------------|--0--0---------------------|
---------------------------|--0--0---------------------|
--5--5---------------------|--0--0---------------------|
--5--5-------4-4-4-4-5-5-5-|--2--2-------4-4-4-4-5-5-5-|
--3--3-------5-5-5-5-5-5-5-|--2--2-------5-5-5-5-5-5-5-|
-------------2-2-2-2-3-3-3-|--0--0-------2-2-2-2-3-3-3-|


                                                                  
-------------------------------|--0--0-0-0-0-0-0-0---------------|
-------------------------------|--0--0-0-0-0-0-0-0---------------|
--5--5--5-5-5-5----------------|--0--0-0-0-0-0-0-0---------------|
--5--5--5-5-5-5--4-4-4-4-5-5-5-|--2--2-2-2-2-2-2-2-4-4-4-4-5-5-5-|
--3--3--3-3-3-3--5-5-5-5-5-5-5-|--2--2-2-2-2-2-2-2-5-5-5-5-5-5-5-|
-----------------2-2-2-2-3-3-3-|--0--0-0-0-0-0-0-0-2-2-2-2-3-3-3-|


                                                                    
---------------------------------|--0--0-0-0-0-0-0-0---------------|
---------------------------------|--0--0-0-0-0-0-0-0---------------|
--5--5-5-5-5-5-5-5---------------|--0--0-0-0-0-0-0-0---------------|
--5--5-5-5-5-5-5-5-4-4-4-4-5-5-5-|--2--2-2-2-2-2-2-2-4-4-4-4-5-5-5-|
--3--3-3-3-3-3-3-3-5-5-5-5-5-5-5-|--2--2-2-2-2-2-2-2-5-5-5-5-5-5-5-|
-------------------2-2-2-2-3-3-3-|--0--0-0-0-0-0-0-0-2-2-2-2-3-3-3-|


                                                                    
---------------------------------|--0--0-0-0-0-0-0-0---------------|
---------------------------------|--0--0-0-0-0-0-0-0---------------|
--5--5-5-5-5-5-5-5---------------|--0--0-0-0-0-0-0-0---------------|
--5--5-5-5-5-5-5-5-4-4-4-4-5-5-5-|--2--2-2-2-2-2-2-2-4-4-4-4-5-5-5-|
--3--3-3-3-3-3-3-3-5-5-5-5-5-5-5-|--2--2-2-2-2-2-2-2-5-5-5-5-5-5-5-|
-------------------2-2-2-2-3-3-3-|--0--0-0-0-0-0-0-0-2-2-2-2-3-3-3-|



                                                                    
---------------------------------|--0--0-0-0-0-0-0-0---------------|
---------------------------------|--0--0-0-0-0-0-0-0---------------|
--5--5-5-5-5-5-5-5---------------|--0--0-0-0-0-0-0-0---------------|
--5--5-5-5-5-5-5-5-4-4-4-4-5-5-5-|--2--2-2-2-2-2-2-2-4-4-4-4-5-5-5-|
--3--3-3-3-3-3-3-3-5-5-5-5-5-5-5-|--2--2-2-2-2-2-2-2-5-5-5-5-5-5-5-|
-------------------2-2-2-2-3-3-3-|--0--0-0-0-0-0-0-0-2-2-2-2-3-3-3-|


                      
--------------------||
--------------------||
--5--5--------------||
--5--5--------------||
--3--3--------------||
--------------------||
Comments