Matches - Sick Little Suicide Chords & Tabs

 

Sick Little Suicide Chords & Tabs

Matches Chords & Tabs

Version: 2 Type: Tab 0 ratings
1 star 2 stars 3 stars 4 stars 5 stars
comments

Sick Little Suicide Tab

Ok so i got this tab off of their site. well if you wanna The Matches tab's go to their site.

                                                             
E||------|------|---------------------|---------------------|
B||------|------|---------------------|---------------------|
G||------|------|---------------------|---------------------|
D||------|------|---------------------|---------------------|
A||------|------|---------------------|--3------------------|
E||------|------|--0--------2----3----|-----------2----3----|

[ Tab from: http://www.guitartabs.cc/tabs/m/matches/sick_little_suicide_tab_ver_2.html ]
                                                                              
---------------------|--------------------|----------------------------------|
---------------------|--------------------|------------------12--------------|
---------------------|--------------------|----------------------12--14--11--|
---------------------|--------------------|----14-14-14-14-------------------|
---------------------|--3--------5--------|----------------------------------|
--0--------2----3----|--------------------|----------------------------------|



                                                                      
------------------------------12--|----------------------------------|
------------------12--------------|------------------12--------------|
----------------------12--14------|----------------------12--14--11--|
----14-14-14-14-------------------|----14-14-14-14-------------------|
----------------------------------|----------------------------------|
----------------------------------|----------------------------------|


                                                                               
------12-----12-----12-----12---------|--12----------------|------------------|
--------------------------------------|--------------------|------------------|
--------------------------------------|--------------------|------------------|
--14------14-----14-----14------12h14-|--------------------|------------------|
--------------------------------------|--------------------|------------------|
--------------------------------------|--------------------|------------------|
Comments