Matches - Sick Little Suicide Chords & Tabs

 

Sick Little Suicide Chords & Tabs

Matches Chords & Tabs

Version: 1 Type: Tab 0 ratings
1 star 2 stars 3 stars 4 stars 5 stars
comments

Sick Little Suicide Tab

   
Intro (Palm Muted) - atleast what i think it is
e----------------------------------------------|
b----------------------------------------------|
g-9-9-9-9-7-7-9--9--------------12-12-10-10----|
d-9-9-9-9-7-7-9--9--10-10-10-10-12-12-10-10----|
a-7-7-7-7-9-9-10-10-10-10-10-10-10-10-10-10----|
E--------------------8--8--8--8----------------|

Riff A
e--------------------------------------------------|
b--------------------------------------------------|
g-------------------------5-5-5-5------------------|
d-2-2-2-2--4-4-4-4-5-5-5--5-5-5-5--4-4-4-4-5-5-5---|
a-2-2-2-2--5-5-5-5-5-5-5--3-3-3-3--5-5-5-5-5-5-5---|
E-0-0-0-0--2-2-2-2-3-3-3-----------2-2-2-2-3-3-3---|
[ Tab from: http://www.guitartabs.cc/tabs/m/matches/sick_little_suicide_tab.html ]
Lead Lick
e-----------------------------------------12-|
b-----------12--10--------------12--10-12----|
g-9-9-9-9-----12--11--9-9-9-9----12----------|
d--------------------------------------------|
a--------------------------------------------|
E--------------------------------------------|

Repeat Intro for verse (mark said he could...)

Both Guitars play riff A

Chorus (There's a sick little suicide...)
e--------------------------------------------------|
b--------------------------------------------------|
g--------------2-2-4-4-5----------------------7----|
d-2-2-4-4-5-5--2-2-4-4-5- Repeat then end on--7----|
a-2-2-4-4-5-5--0-0-2-2-3----------------------5----|
E-0-0-2-2-3-3--------------------------------------|

For clean guitar after solo, repeat intro with different strumming pattern, and hit the 
of the C power chord.
Comments