Matches - Sick Little Suicide Chords & Tabs

 

Sick Little Suicide Chords & Tabs

Matches Chords & Tabs

Version: 1 Type: Bass Tab 0 ratings
1 star 2 stars 3 stars 4 stars 5 stars
comments

Sick Little Suicide Bass Tab

Bass (Justin) this is 100% correct



                                                                               
G||------------------|------------------|------------------|---------------|
D||------------------|------------------|------------------|---------------|
A||------------------|------------------|------------------|---------------|
E||------------------|------------------|------------------|---------------|


                                                                            
--4--------5----7----|--9--------12----14----|-----------------------------|
---------------------|-----------------------|-----------------------------|
---------------------|-----------------------|-----------------------------|
---------------------|-----------------------|--0--0--12/----2-2-2-2-3-3-3-|


                                                        
---------------------------|---------------------------|
---------------------------|---------------------------|
--3--3---------------------|---------------------------|
-------------2-2-2-2-3-3-3-|--0--0-------2-2-2-2-3-3-3-|


                                                                            
-------------------------------|---------------------|---------------------|
-------------------------------|---------------------|---------------------|
--3--3--3-3-3-3----------------|---------------------|--3--------2----3----|
-----------------2-2-2-2-3-3-3-|--0--------2----3----|---------------------|


                                                                          
---------------------|------------------------|--------------------------|
---------------------|------------------------|--------------------------|
--7--------5----7----|--3------0--3--2--0-----|--------------------------|
---------------------|---------------------3--|--0--0--0--0--2--2--3--3--|


                                                      
--------------------------|--------------------------|
--------------------------|--------------------------|
--3--3--3--3--2--2--3--3--|--7--7--7--7--5--5--7--7--|
--------------------------|--------------------------|


                                                       
--------------------------|---------------------------|
--------------------------|---------------------------|
--3--3--3--0--3--2--0-----|---------------------------|
-----------------------3--|--0--0-------2-2-2-2-3-3-3-|


                                                        
---------------------------|---------------------------|
---------------------------|---------------------------|
--3--3---------------------|---------------------------|
-------------2-2-2-2-3-3-3-|--0--0-------2-2-2-2-3-3-3-|


                                                            
-------------------------------|---------------------------|
-----------------4-2-4-5-4-2-4-|---------------------------|
--3--3--3-2-3-3----------------|---------------------------|
-------------------------------|--0--0-------2-2-2-2-3-3-3-|


                                                        
---------------------------|---------------------------|
---------------------------|---------------------------|
--3--3---------------------|---------------------------|
-------------2-2-2-2-3-3-3-|--0--0-------2-2-2-2-3-3-3-|


                                                         
-------------------------------|------------------------|
-------------------------------|------------------------|
--3--3--3-3-3-3----------------|------------------------|
-----------------2-2-2-2-3-3-3-|----0--0--2--2--3--3----|


                                                                           
------------------------|------------------------|------------------------|
------------------------|------------------------|------------------------|
----0--0--2--2--3--3----|------------------------|----0--0--2--2--3--3----|
------------------------|----0--0--2--2--3--3----|------------------------|


                                                                           
------------------------|------------------------|------------------------|
------------------------|------------------------|------------------------|
------------------------|----0--0--2--2--3--3----|------------------------|
----0--0--2--2--3--3----|------------------------|----0--0--2--2--3--3----|


                                                                               
------------------------|-------------------------|------------------------|
------------------------|-------------------------|------------------------|
----0--0--2--2--3--3----|-------------------------|--5-5-5-5-5-5-5-5-5-----|
------------------------|----0--0--2--2--3--3--3--|------------------------|


                                                        
---------------------------|---------------------------|
---------------------------|---------------------------|
---------------------------|--3--3---------------------|
--0--0-------2-2-2-2-3-3-3-|-------------2-2-2-2-3-3-3-|


                                                            
---------------------------|-------------------------------|
---------------------------|-------------------------------|
---------------------------|--3--3--3-3-3-3----------------|
--0--0-------2-2-2-2-3-3-3-|-----------------2-2-2-2-3-3-3-|


                                                                  
---------------------|---------------------|---------------------|
---------------------|---------------------|---------------------|
---------------------|--3--------2----3----|--7--------5----7----|
--0--------2----3----|---------------------|---------------------|


                                                                               
------------------------|--------------------------|-----------------------|
------------------------|--------------------------|-----------------------|
--3------0--3--2--0-----|--------------------------|--3--3--3--3--2--2--3-3|
---------------------3--|--0--0--0--0--2--2--3--3--|-----------------------|


                                                      
--------------------------|--------------------------|
--------------------------|--------------------------|
--7--7--7--7--5--5--7--7--|--3--3--3--0--3--2--0-----|
--------------------------|-----------------------3--|


                                                        
---------------------------|---------------------------|
---------------------------|---------------------------|
---------------------------|--3--3---------------------|
--0--0-------2-2-2-2-3-3-3-|-------------2-2-2-2-3-3-3-|


                                                            
---------------------------|-------------------------------|
---------------------------|-----------------4-2-4-5-4-2-4-|
---------------------------|--3--3--3-2-3-3----------------|
--0--0-------2-2-2-2-3-3-3-|-------------------------------|


                                                        
---------------------------|---------------------------|
---------------------------|---------------------------|
---------------------------|--3--3---------------------|
--0--0-------2-2-2-2-3-3-3-|-------------2-2-2-2-3-3-3-|


                                                            
---------------------------|-------------------------------|
---------------------------|-------------------------------|
---------------------------|--3--3--3-3-3-3----------------|
--0--0-------2-2-2-2-3-3-3-|-----------------2-2-2-2-3-3-3-|


                                                                           
------------------------|------------------------|------------------------|
------------------------|------------------------|------------------------|
------------------------|----0--0--2--2--3--3----|------------------------|
----0--0--2--2--3--3----|------------------------|----0--0--2--2--3--3----|

[ Tab from: http://www.guitartabs.cc/tabs/m/matches/sick_little_suicide_btab.html ]
                                                                           
------------------------|------------------------|------------------------|
------------------------|------------------------|------------------------|
----0--0--2--2--3--3----|------------------------|----0--0--2--2--3--3----|
------------------------|----0--0--2--2--3--3----|------------------------|


                                                                            
------------------------|------------------------|-------------------------|
------------------------|------------------------|-------------------------|
------------------------|----0--0--2--2--3--3----|-------------------------|
----0--0--2--2--3--3----|------------------------|----0--0--2--2--3--3--3--|


                                                          
---------------------------|-----------------------------|
---------------------------|-----------------------------|
--5-5-5-5-5-5-5-5-5--------|-----------------------------|
---------------------------|--0--0--12/----2-2-2-2-3-3-3-|


                                                        
---------------------------|---------------------------|
---------------------------|---------------------------|
--3--3---------------------|---------------------------|
-------------2-2-2-2-3-3-3-|--0--0-------2-2-2-2-3-3-3-|


                                                                    
--------------------------------|----------------------------------|
--------------------------------|----------------------------------|
--3--3--3-3-3-3-3-5-5-5-5-5-5-5-|--7-7-7-7-7-7-7-7-7-7-7-7-7-7-7-7-|
--------------------------------|----------------------------------|


                                                   
--------------------------------------------------|
--------------------------------------------------|
--10-10-10-10-10-10-10-10-10-10-10-10-10-10-10-10-|
--------------------------------------------------|


                                                                      
----------------------------------|----------------------------------|
----------------------------------|----------------------------------|
--0-0-0-0-0-0-0-0-0-0-0-0-0-0-0-0-|--3-3-3-3-3-3-3-3-3-3-3-3-3-3-3-3-|
----------------------------------|----------------------------------|


                                                                      
----------------------------------|----------------------------------|
----------------------------------|----------------------------------|
--5-5-5-5-5-5-5-5-5-5-5-5-5-5-5-5-|--7-7-7-7-7-7-7-7-7-7-7-7-7-7-7-7-|
----------------------------------|----------------------------------|


                                                   
--------------------------------------------------|
--------------------------------------------------|
--10-10-10-10-10-10-10-10-10-10-10-10-10-10-10-10-|
--------------------------------------------------|


                                                   
--------------------------------------------------|
--------------------------------------------------|
--12-12-12-12-12-12-12-12-12-12-12-12-12-12-12-12-|
--------------------------------------------------|


                                                   
--------------------------------------------------|
--------------------------------------------------|
--15-15-15-15-15-15-15-15-15-15-15-15-15-15-15-15-|
--------------------------------------------------|


                                                                            
--------------------------------------------------|---|------|------|------|
--12-12-12-12-12-12-12-12-12-12-12-12-12-12-12-12-|---|------|------|------|
--------------------------------------------------|---|------|------|------|
--------------------------------------------------|---|------|------|------|


                                                                        
----|----|----|-----------------------------|--------------------------|
----|----|----|----------12/14--12----------|--------------------------|
----|----|----|---------------------15--12/-|--7--7--7--5--7--5--7-5---|
----|----|----|-----------------------------|--------------------------|


                                                      
--------------------------|--------------------------|
--------------------------|--------------------------|
--------------------------|--7--7--7--5--7--5--7-5---|
--8--8--8--7--8--7--8-7---|--------------------------|


                                                             
---------------------------------|--------------------------|
---------------------9-10-9------|--------------------------|
----------------9-10--------10-9-|--7--7--7--5--7--5--7-5---|
--8--8--8--7--8------------------|--------------------------|


                                                      
--------------------------|--------------------------|
--------------------------|--------------------------|
--------------------------|--7--7--7--5--7--5--7-5---|
--8--8--8--7--8--7--8-7---|--------------------------|


                                                      
--------------------------|--------------------------|
--------------------------|--------------------------|
--------------------------|--7--7--7--5--7--5--7-5---|
--8--8--8--7--8--7--8-7---|--------------------------|


                                                       
--------------------------|---------------------------|
--------------------------|---------------------------|
--------------------------|---------------------------|
--8--8--8--7--8--7--8-7---|--0--0-------2-2-2-2-3-3-3-|


                                                        
---------------------------|---------------------------|
---------------------------|---------------------------|
--3--3---------------------|---------------------------|
-------------2-2-2-2-3-3-3-|--0--0-------2-2-2-2-3-3-3-|


                                                            
-------------------------------|---------------------------|
-------------------------------|---------------------------|
--3--3--3-3-3-3----------------|---------------------------|
-----------------2-2-2-2-3-3-3-|--0--0-------2-2-2-2-3-3-3-|


                                                        
---------------------------|---------------------------|
---------------------------|---------------------------|
--3--3---------------------|---------------------------|
-------------2-2-2-2-3-3-3-|--0--0-------2-2-2-2-3-3-3-|


                                                                  
-------------------------------|---------------------------------|
-------------------------------|---------------------------------|
--3--3--3-3-3-3----------------|---------------------------------|
-----------------2-2-2-2-3-3-3-|--0--0-0-0-0-0-0-0-2-2-2-2-3-3-3-|


                                                                    
---------------------------------|---------------------------------|
---------------------------------|---------------------------------|
--3--3-3-3-3-3---3---------------|---------------------------------|
---------------3---2-2-2-2-3-3-3-|--0--0-0-0-0-0-0-0-2-2-2-2-3-3-3-|


                                                                    
---------------------------------|---------------------------------|
---------------------------------|---------------------------------|
--3--3-3-3-3-3---3---------------|---------------------------------|
---------------3---2-2-2-2-3-3-3-|--0--0-0-0-0-0-0-0-2-2-2-2-3-3-3-|


                                                                    
---------------------------------|---------------------------------|
---------------------------------|---------------------------------|
--3--3-3-3-3-3---3---------------|---------------------------------|
---------------3---2-2-2-2-3-3-3-|--0--0-0-0-0-0-0-0-2-2-2-2-3-3-3-|


                      
--------------------||
--5--5--------------||
--3--3--------------||
--------------------||
Comments