Matches - Say 18 Chords & Tabs

 

Say 18 Chords & Tabs

Matches Chords & Tabs

Version: 1 Type: Tab 0 ratings
1 star 2 stars 3 stars 4 stars 5 stars
comments

Say 18 Tab

Song:		Say 18
Band:		The Matches (www.thematches.com)
Album:		E. Von Dahl Killed the Locals
Signed by:	Epitaph
Tabbed by:	Macca


     intro
E||----------------------------------------------------------------------|
B||------------------------------------15-15-17-15-13~~~~~~~~~~~~~~~~~~--|
G||--9--12--10-9-7----9--11--12------------------------------------------|
D||----------------------------------------------------------------------|
A||----------------------------------------------------------------------|
E ||---------------------------------------------------------------------|

    verse
    ---------------------------------------------------------------------------|
    ---------------------------------------------------------------------------|
    -x-x-5-x-5-5-x-5-x-x-5-5---------------------------x-x-5-x-5-5-x-5-x-x-5-5-|
    -x-x-5-x-5-5-x-5-x-x-5-5--x-x-3-x-3-3-x-3-x-x-3-3--x-x-5-x-5-5-x-5-x-x-5-5-|
    -x-x-3-x-3-3-x-3-x-x-3-3--x-x-3-x-3-3-x-3-x-x-3-3--x-x-3-x-3-3-x-3-x-x-3-3-|
    --------------------------x-x-1-x-1-1-x-1-x-x-1-1--------------------------|


    ------------------------------------------------------------------------------|
    ------------------------------------------------------------------------------|
    ---------------------------------------------------5-5-5-5--5---5-5-5-5-5-5-5-|
    -x-x-3-x-3-3-x-3-x-x-3-3--x-x-3-x-3-3-x-3-x-x-3-3--5-5-5-5--5---5-5-5-5-5-5-5-|
    -x-x-3-x-3-3-x-3-x-x-3-3--x-x-3-x-3-3-x-3-x-x-3-3--3-3-3-3--3---3-3-3-3-3-3-5-|
    -x-x-1-x-1-1-x-1-x-x-1-1--x-x-1-x-1-1-x-1-x-x-1-1-----------------------------|


     intro riff
    -----------------------------------------------------------------------------|
    -----------------------------------------------------------------------------|
    -9--12--10-9-7----9--11--12--------------------------------------------------|
    -----------------------------------------------------------------------------|
    -----------------------------------------------------------------------------|
    -----------------------------------------------------------------------------|


    chorus (rhythm)
    -----------------------------------------------------------------------------|
    -----------------------------------------------------------------------------|
    ---------5--5----------------------------------------------------------------|
    -3--3-3--5--5-5--------------------------------------------------------------|
    -3--3-3--3--3-5--------------------------------------------------------------|
    -1--1-1-------3--------------------------------------------------------------|


                 --or--


    chorus (lead)
    -----------------------------------------------------------------------------|
    -----------------------------------------------------------------------------|
    -----------9-----------------------------------------------------------------|
    -3--3-3-------10-------------------------------------------------------------|
    -3--3-3---------10-----------------------------------------------------------|
    -1--1-1----------------------------------------------------------------------|

     After chorus (pt.1)   (press and hold on 7, pluck first 3 notes then press
     the 10th fret on and off)
    -----------------------------------------------------------------------------|
    -----------------------------------------------------------------------------|
    -----------------------------------------------------------------------------|
    -7-7-10-7-10-7-10-7-10-7-10-7-10-7-10-7--------------------------------------|
    -----------------------------------------------------------------------------|
    -----------------------------------------------------------------------------|
[ Tab from: http://www.guitartabs.cc/tabs/m/matches/say_18_tab.html ]
     After chorus (pt.2)
    -----------------------------------------------------------------------------|
    -----------------------------------------------------------------------------|
    -----------------------------------------------------------------------------|
    -------------------------3-3-3-3---------------------------------------------|
    -------------3-3-3-3-3-3-3-3-3-3---------------------------------------------|
    -1-1-1-1-1-1-1-1-1-1-1-1-1-1-1-1---------------------------------------------|

    bridge pt.1
    ------------------------------------------------------------------------------|
    -17-18-17-15------------------------------------------------------------------|
    --------------15~~~~~17-19----------------------------------------------------|
    ---------------------------------17-15~~~~~~~~~-------------------------------|
    ------------------------------------------------------------------------------|
    ------------------------------------------------------------------------------|

    bridge pt.2
    ------------------------------------------------------------------------------|
    -----------------------------1-1----1-1----1-1----1-1-------------------------|
    -1-1----1-1----1-1----1-1----2-2----2-2----2-2----2-2-------------------------|
    -2-2----2-2----2-2----2-2----2-2----2-2----2-2----2-2-------------------------|
    -2-2----2-2----2-2----2-2----0-0----0-0----0-0----0-0-------------------------|
    -0-0----0-0----0-0----0-0-----------------------------------------------------|

    end of  intro riff
    ------------------------------------------------------------------------------|
    ------------------------------------------------------------------------------|
    -9--11--12--------------------------------------------------------------------|
    ------------------------------------------------------------------------------|
    ------------------------------------------------------------------------------|
    ------------------------------------------------------------------------------|

      chorus (lead v.2)
    ------------------------------------------------------------------------------|
    ------------------------------------------------------------------------------|
    ------------9--10-12----------------------------------------------------------|
    -3--3-3-----------------------------------------------------------------------|
    -3--3-3-----------------------------------------------------------------------|
    -1--1-1-----------------------------------------------------------------------|


    start of  intro riff
    ------------------------------------------------------------------------------|
    ------------------------------------------------------------------------------|
    -9--12--10----9-7-------------------------------------------------------------|
    ------------------------------------------------------------------------------|
    ------------------------------------------------------------------------------|
    ------------------------------------------------------------------------------|

    end chord
    ------------------------------------------------------------------------------|
    ------------------------------------------------------------------------------|
    -5-5--------------------------------------------------------------------------|
    -5-5--------------------------------------------------------------------------|
    -3-3--------------------------------------------------------------------------|
    ------------------------------------------------------------------------------|


   *If your playing this on your own then youll need to decide where to come in on the 
verse after the intro

   order:

   intro
   verse
   intro riff
   chorus rhythm    x4
   --or--
   chorus lead         x4
   after chorus pt.1
   after chorus pt.2
   intro
   verse
   intro riff
   chorus rhythm    x4
   --or--
   chorus lead         x4
   after chorus pt.1
   after chorus pt.2
   intro riff
   bridge pt.1
   bridge pt.2
   end of intro riff
   chorus rhythm     x8
   --or--
      chorus lead         x3
      chorus lead v.2    x1
      chorus lead         x4
   start of intro riff    x4
   end chord


    This song needs to be played with a wah wah pedal really, i dont actually have one
    yet so it was kind of hard to tell if some parts where right :s

    e-mail any corrections to macca_chainmefree@hotmail.com
Comments