Matches - Eryn Smith Chords & Tabs

 

Eryn Smith Chords & Tabs

Matches Chords & Tabs

Version: 2 Type: Tab 0 ratings
1 star 2 stars 3 stars 4 stars 5 stars
comments

Eryn Smith Tab

Song:		Eryn Smith
Band:		The Matches (www.thematches.com)
Album:		E. Von Dahl Killed the Locals
Signed by:	Epitaph
Tabbed by:	Macca


    intro pt.1
E||--------------------------------------------------------------------------|
B||--------------------------------------------------------------------------|
G||-2----2-5-2----2-2-5-2----2----2-5-2----2-2-5-2----2----2-5-2----2-2-5-2--|
D||--------------------------------------------------------------------------|
A||--------------------------------------------------------------------------|
E ||-------------------------------------------------------------------------|

    intro pt.2
    -------------------------------------------------------------------------|
    -------------------------------------------------------------------------|
    2--2--2--4--4--4--5--5--5--7--7--7--9--9--12--12-------------------------| x4
    -------------------------------------------------------------------------|
    -------------------------------------------------------------------------|
    -------------------------------------------------------------------------|

    intro pt.3
    -------------------------------------------------------------------------|
    -------------------------------------------------------------------------|
    2-2----4-4----5-5----7-7----9-9-9----------------------------------------|
    -------------------------------------------------------------------------|
    -------------------------------------------------------------------------|
    -------------------------------------------------------------------------|

     pre-verse
    --------------------------------------------------------------------------|
    --------------------------------------------------------------------------|
    -7-7-10---9-9-10-10------7-7-10---9-9-10-10------5------7-7-10--9-9-10-10-|
    -7-7-10---9-9-10-10------7-7-10---9-9-10-10------5------7-7-10--9-9-10-10-|
    -5-5-8----7-7--8-8-------5-5--8---7-7--8-8-------3------5-5-8---7-7--8-8--|
    --------------------------------------------------------------------------|

   verse
    ---------------------------------------------------------------------------|
    ---------------------------------------------------------------------------|
    -7-7-7--5-5--3------3------7-7-7--9-9--5------5------7-7-7--9-9--10-----10-|
    -7-7-7--5-5--3------3------7-7-7--9-9--5------5------7-7-7--9-9--10-----10-|
    -5-5-5--3-3--1------1------5-5-5--7-7--3------3------5-5-5--7-7--8-------8-|
    ---------------------------------------------------------------------------|

	pre-chorus (rhythm)
        ------------------------------------------------------------------------------|
        ------------------------------------------------------------------------------|
        ------------------------------------------------------------------------------|
        ---------------------------------------------------------------------x-x-3~~~-|
        ---------------------------------------------------------------------x-x-3~~~-|
        ---------------------------------------------------------------------x-x-1~~~-|


    	------------------------------------------------------------------------------|
    	------------------------------------------------------------------------------|
    	------------------------------------------------------------------------------|
    	-7--7--7--7--7------5--5--5--5--5------3--3--3--3--3-----2--2--2--2--2--------|
    	-7--7--7--7--7------5--5--5--5--5------3--3--3--3--3-----2--2--2--2--2--------|
    	-5--5--5--5--5------3--3--3--3--3------1--1--1--1--1-----0--0--0--0--0--------|


        ------------------------------------------------------------------------------|
        ------------------------------------------------------------------------------|
        ------------------------------------------------------------------------------|
        -7--7--7--7--7------5--5--5--5--5------3--3--3--3--3------2--2---2-2-2-2-2-2--|
        -7--7--7--7--7------5--5--5--5--5------3--3--3--3--3------2--2---2-2-2-2-2-2--|
       -5--5--5--5--5------3--3--3--3--3------1--1--1--1--1------0--0---0-0-0-0-0-0---|


    	-----------------------------------------------------------------------------|
    	-----------------------------------------------------------------------------|
    	-----------------------------------------------------------------------------|
    	2-2--------------------------------------------------------------------------|
    	2-2--------------------------------------------------------------------------|
    	0-0--------------------------------------------------------------------------|

	--or--
	pre-chorus  (lead) 1
    ----------------------------------------------------------------------------------|
        ------------------------------------------------------------------------------|
       -------------------------------------------------------------------------------|
       -7-----7-10-7-----7-7-10-7-----5-----5-9-5-----5-5-9-5-----3-----3-7-3-----3-3-|
       -------------------------------------------------------------------------------|
       -------------------------------------------------------------------------------|


    	------------------------------------------------------------------------------|
    	------------------------------------------------------------------------------|
    	------------------------------------------------------------------------------|
    	7-3-----2-----2-5-2-----2-2-5-2------7------7-10-7-----7-7-10-7-----5-----5-9-|
    	------------------------------------------------------------------------------|
    	------------------------------------------------------------------------------|


       --------------------------------------------------------------------------------|
        -------------------------------------------------------------------------------|
        -------------------------------------------------------------------------------|
        5-----5-5-9-5-----3-----3-7-3------3-3-7-3-------------------------------------|
        -------------------------------------------------------------------------------|
        -------------------------------------------------------------------------------|


       --------------------------------------------------------------------------------|
        -------------------------------------------------------------------------------|
        -------------------------------------------------------------------------------|
        --------------------------------------------------------------2-2-2-2-2-2-2-2--|
        --------------------------------------------------------------2-2-2-2-2-2-2-2--|
        --------------------------------------------------------------0-0-0-0-0-0-0-0--|
[ Tab from: http://www.guitartabs.cc/tabs/m/matches/eryn_smith_tab_ver_2.html ]
	pre-chorus (lead) 2
    -----------------------------------------------------------------------------------|
        -------------------------------------------------------------------------------|
       --------------------------------------------------------------------------------|
       -7-----7-10-7-----7-7-10-7-----5-----5-9-5-----5-5-9-5-----3-----3-7-3-----3-3--|
       --------------------------------------------------------------------------------|
       --------------------------------------------------------------------------------|


    	------------------------------------------------------------------------------|
    	------------------------------------------------------------------------------|
    	------------------------------------------------------------------------------|
    	7-3-----2-----2-5-2-----2-2-5-2------7------7-10-7-----7-7-10-7-----5-----5-9-|
    	------------------------------------------------------------------------------|
    	------------------------------------------------------------------------------|


       --------------------------------------------------------------------------------|
        -------------------------------------------------------------------------------|
        --12-10-9-10-9-7---------------------------------------------------------------|
        5--------------------3-----3-7-3-----3-3-7-3-----------------------------------|
        -------------------------------------------------------------------------------|
        -------------------------------------------------------------------------------|


       --------------------------------------------------------------------------------|
        -------------------------------------------------------------------------------|
        -------------------------------------------------------------------------------|
        --------------------------------------------------------------2-2-2-2-2-2-2-2--|
        --------------------------------------------------------------2-2-2-2-2-2-2-2--|
        --------------------------------------------------------------0-0-0-0-0-0-0-0--|

    chorus
    -------------------------------------------------------------------------|
    -------------------------------------------------------------------------|
    -5-5-5-5-5-5-5-5-5-5-5-5-5-5-5-5-3-3-3-3-3-3-3-3-3-3-3-3-3-3-3-3---------|
    -5-5-5-5-5-5-5-5-5-5-5-5-5-5-5-5-3-3-3-3-3-3-3-3-3-3-3-3-3-3-3-3-3-3-3-3-|
    -3-3-3-3-3-3-3-3-3-3-3-3-3-3-3-3-1-1-1-1-1-1-1-1-1-1-1-1-1-1-1-1-3-3-3-3-|
    -----------------------------------------------------------------1-1-1-1-|


    ------------------------------------------------------------------------|
    ------------------------------------------------------------------------|
    --------------------------------------------------------5-5-5-5-5-5-5-5-|
    3-3-3-3-3-3-3-3-3-3-3-3-5-5-5-5-5-5-5-5-5-5-5-5-5-5-5-5-5-5-5-5-5-5-5-5-|
    3-3-3-3-3-3-3-3-3-3-3-3-5-5-5-5-5-5-5-5-5-5-5-5-5-5-5-5-3-3-3-3-3-3-3-3-|
    1-1-1-1-1-1-1-1-1-1-1-1-3-3-3-3-3-3-3-3-3-3-3-3-3-3-3-3-----------------|


    ------------------------------------------------------------------------|
    ------------------------------------------------------------------------|
    5-5-5-5-5-5-5-5-3-3-3-3-3-3-3-3-3-3-3-3-3-3-3-3-------------------------|
    5-5-5-5-5-5-5-5-3-3-3-3-3-3-3-3-3-3-3-3-3-3-3-3-3-3-3-3-3-3-3-3-3-3-3-3-|
    3-3-3-3-3-3-3-3-1-1-1-1-1-1-1-1-1-1-1-1-1-1-1-1-3-3-3-3-3-3-3-3-3-3-3-3-|
    ------------------------------------------------1-1-1-1-1-1-1-1-1-1-1-1-|


    -----------------------------------------------------------------------|
    -----------------------------------------------------------------------|
    -----------------------------------------------------------------------|
    3-3-3-3-5-5-5-5-5-5-5-5-5-5-5-5-5-5-5-5--------------------------------|
    3-3-3-3-5-5-5-5-5-5-5-5-5-5-5-5-5-5-5-5--------------------------------|
    1-1-1-1-3-3-3-3-3-3-3-3-3-3-3-3-3-3-3-3--------------------------------|

    after chorus lick
    --------------------------------------------------------------------------|
    --------------------------------------------------------------------------|
    --------------------------------------------------------------------------|
    7------7-10-7-----7-7-10-7---5-----5-9-5-----5-5-9--7-9/10---7-10/12---10-|
    --------------------------------------------------------------------------|
    --------------------------------------------------------------------------|


    -----------------------------------------------------------------------|
    -----------------------------------------------------------------------|
    -----------------------------------------------------------------------|
    9-9/10/9---------------------------------------------------------------|
    -----------------------------------------------------------------------|
    -----------------------------------------------------------------------|

    bridge
    ----------------------------------------------------------------------|
    ----------------------------------------------------------------------|
    ----------------------------------------------------------------------|
    -7~~~~~~~~~~~~~~~~~~~~~~~~~~~~~~~~~~~3~~~~~~~~~~~~~~~~~~~~~~~~~~~~~~~~
    -7~~~~~~~~~~~~~~~~~~~~~~~~~~~~~~~~~~~3~~~~~~~~~~~~~~~~~~~~~~~~~~~~~~~~
    -5~~~~~~~~~~~~~~~~~~~~~~~~~~~~~~~~~~~1~~~~~~~~~~~~~~~~~~~~~~~~~~~~~~~~


    ----------------------------------------------------------------------|
    ----------------------------------------------------------------------|
    ----------------------------------------------------------------------|
    7~~~~~~~~~~~~~~~~~~~~~~~~~~~~~~~~~~~3~~~~~~~~~~~~~~~~~~~~~~~~~~~~~~~~~
    7~~~~~~~~~~~~~~~~~~~~~~~~~~~~~~~~~~~3~~~~~~~~~~~~~~~~~~~~~~~~~~~~~~~~~
    5~~~~~~~~~~~~~~~~~~~~~~~~~~~~~~~~~~~1~~~~~~~~~~~~~~~~~~~~~~~~~~~~~~~~~


    ------------------------------------------------------------------------|
    ------------------------------------------------------------------------|
    ------------------------------------------------------------------------|
    7-7-7-7-7-7-7-7-7-7-7-7-7-7-7-7-3-3-3-3-3-3-3-3-3-3-3-3-3-3-3-3-3-3-3-3-|
    7-7-7-7-7-7-7-7-7-7-7-7-7-7-7-7-3-3-3-3-3-3-3-3-3-3-3-3-3-3-3-3-3-3-3-3-|
    5-5-5-5-5-5-5-5-5-5-5-5-5-5-5-5-1-1-1-1-1-1-1-1-1-1-1-1-1-1-1-1-5-5-5-5-|


    -----------------------------------------------------------------------|
    -----------------------------------------------------------------------|
    -----------------------------------------------------------------------|
    -3-3-3-3-3-3-3-3-3-3-3-3-----------------------------------------------|
    -3-3-3-3-3-3-3-3-3-3-3-3-1-1-1-1-1-1-1-1-1~~~~~------------------------|
    -5-5-5-5-5-5-5-5-5-5-5-5-3-3-3-3-3-3-3-3-3~~~~~------------------------|


    outro
    -----------------------------------------------------------------------|
    -----------------------------------------------------------------------|
    -2-2----4-4----9-9----7-7---5-5-4--------------------------------------|
    ---------------------------------------7~~~~~~~~~~~~~~~~~~~~~---7------|
    ---------------------------------------7~~~~~~~~~~~~~~~~~~~~~---7------|
    ---------------------------------------5~~~~~~~~~~~~~~~~~~~~~---5------|


    order:

    intro pt.1
    intro pt.2 x4
    intro pt.3
    pre-verse
    verse
    pre-chorus rhythm or  pre-chorus lead 1
    chorus
    after chorus lick
    verse
    pre chorus rhythm or pre-chorus  lead 2
    chorus
    intro pt.2 x4
    bridge
    chorus (end on palm mute)
    intro pt.2 x3
    outro

    macca_chainmefree@hotmail.com
Comments