Matches - Dog Eared Page Chords & Tabs

 

Dog Eared Page Chords & Tabs

Matches Chords & Tabs

Version: 1 Type: Bass Tab 0 ratings
1 star 2 stars 3 stars 4 stars 5 stars
comments

Dog Eared Page Bass Tab

Bass (Justin) - this is 100% correct



                                                         
G||--------------------------|--------------------------|
D||--------------------------|--------------------------|
A||--------------------------|--------------------------|
E||--7--7--7--7--7--7--7--7--|--7--7--7--7--7--7--7--7--|


                                                                       
--------------------------|-------------------|-----------------------|
--------------------------|-------------------|-----------------------|
--------------------------|-------------------|--2----2----2----2-----|
--3--3--3--3--3--3--3--3--|--3----------------|--------------------2--|


                                                                           
------------------------|------------------------|------------------------|
------------------------|------------------------|------------------------|
---------------------0--|--2----2----2--0--2-----|------------------------|
--3----3----3--2--3-----|---------------------2--|--3----3----3--2--3--5--|


                                                                          
-----------------------|------------------------|------------------------|
-----------------------|------------------------|------------------------|
------2----2--0--2-----|---------------------0--|--2----2----2--0--2-----|
--------------------2--|--3----3----3--2--3-----|---------------------2--|


                                                                           
------------------------|------------------------|------------------------|
------------------------|------------------------|------------------------|
---------------------0--|--2----2----2--0--2-----|---------------------0--|
--3----3----3--2--3-----|---------------------2--|--3----3----3--2--3-----|


                                                                             
------------------------|------------------------|-------------------------|
------------------------|------------------------|-------------------------|
--2----2----2--0--2-----|---------------------0--|--2--2--2--2--2--2--2--2-|
---------------------2--|--3----3----3--2--3-----|-------------------------|


                                                                           
--------------------------|--------------7--------|-----------------------|
--------------------------|-----------------------|--------------5--------|
--------------------------|--5--5--5--5-----------|-----------------------|
--3--3--3--3--3--3--3--3--|-----------------------|--3--3--3--3-----------|


                                                                        
--------------7--------|-----------------------|--------------7--------|
-----------------------|--------------5--------|-----------------------|
--5--5--5--5-----------|-----------------------|--5--5--5--5-----------|
-----------------------|--3--3--3--3-----------|-----------------------|


                                                                               
------------------------|--------------------------|-----------------------|
--------------5----5----|--------------------------|-----------------------|
------------------------|--------------------------|-----------------------|
--3--3--3--3--3----3----|--5--5--5--5--5--5--5--5--|--5--5--5--5--5--5--5-5|


                                                                           
--------------------------|--------------------------|--------------------|
--------------------------|--------------------------|--7-----------------|
--------------------------|--------------------------|--5--------------4--|
--5--5--5--5--5--5--5--5--|--5--5--5--5--5--5--5--5--|--------------------|


                                                      
------|----------------------|-----------------------|
------|----------------------|-----------------------|
------|----------------------|-----------------------|
------|--3----3------3----3--|----3--3----3--3--3----|


                                                                               
--------------------------|--------------------------|------------------12-|
-----------------------4--|--4--4--4--4--4--4--4--4--|--5----5-------------|
--5--5--5--5--5--5--5-----|--------------------------|-------5/-----10--10-|
--------------------------|--------------------------|---------------------|


                                                             
--------12--------------------|--------11--------11---------|
------------------------------|-----------------------------|
----10--10----10--10--10--10--|-----------------------------|
------------------------------|--10----------10------10--9--|


                                                      
----14-------14---------|--------16--------18----19--|
------------------------|----------------------------|
------------------------|----------------------------|
----------9------9/-----|--15----------15------------|


                                                            
--------------------------------|--------------------------|
--------------------------------|--------------------------|
--------------------------------|--------------------------|
----15--15--15--15--15--15--15/-|--7--7--7--7--7--7--7--7--|


                                                                          
--------------------------|--------------------------|-------------------|
--------------------------|--------------------------|-------------------|
--------------------------|--------------------------|-------------------|
--7--7--7--7--7--7--7--7/-|--3--3--3--3--3--3--3--3--|--3----------------|


                                                                          
-----------------------|------------------------|------------------------|
-----------------------|------------------------|------------------------|
--2----2----2----2-----|---------------------0--|--2----2----2--0--2-----|
--------------------2--|--3----3----3--2--3-----|---------------------2--|


                                                                           
------------------------|------------------------|------------------------|
------------------------|------------------------|------------------------|
------------------------|--2----2----2--0--2-----|---------------------0--|
--3----3----3--2--3--5--|---------------------2--|--3----3----3--2--3-----|


                                                                        
----------------------|------------------------|-----------------------|
-------9---------9----|------------------------|-----------------------|
--2/--------2/--------|---------------------0--|--2----2----2----2-----|
----------------------|--3----3----3--2--3-----|--------------------2--|


                                                                           
------------------------|------------------------|------------------------|
------------------------|------------------------|------------------------|
---------------------0--|--2----2----2--0--2-----|------------------------|
--3----3----3--2--3-----|---------------------2--|--3----3----3--2--3--5--|


                                                                           
------------------------|------------------------|------------------------|
------------------------|------------------------|------------------------|
--2----2----2--0--2-----|---------------------0--|--2----2----2--0--2-----|
---------------------2--|--3----3----3--2--3-----|---------------------2--|


                                                                          
-------------------|--------------------------|--------------------------|
-------------------|--------------------------|--------------------------|
-------------------|--------------------------|--------------------------|
----------------5--|--7--7--7--7--7--7--7--7--|--3--3--3--3--3--3--3--3--|


                                                                        
--------------7--------|-----------------------|--------------7--------|
-----------------------|--------------5--------|-----------------------|
--5--5--5--5-----------|-----------------------|--5--5--5--5-----------|
-----------------------|--3--3--3--3-----------|-----------------------|

[ Tab from: http://www.guitartabs.cc/tabs/m/matches/dog_eared_page_btab.html ]
                                                                         
-----------------------|--------------7--------|------------------------|
--------------5--------|-----------------------|--------------5----5----|
-----------------------|--5--5--5--5-----------|------------------------|
--3--3--3--3-----------|-----------------------|--3--3--3--3--3----3----|


                                                      
--------------------------|--------------------------|
--------------------------|--------------------------|
--------------------------|--------------------------|
--5--5--5--5--5--5--5--5--|--5--5--5--5--5--5--5--5--|


                                                                           
--------------------------|--------------------------|--------------------|
--------------------------|--------------------------|--7-----------------|
--------------------------|--------------------------|--5--------------4--|
--5--5--5--5--5--5--5--5--|--5--5--5--5--5--5--5--5--|--------------------|


                                                      
------|----------------------|-----------------------|
------|----------------------|-----------------------|
------|----------------------|-----------------------|
------|--3----3------3----3--|----3--3----3--3--3----|


                                                                               
--------------------------|--------------------------|------------------12-|
-----------------------4--|--4--4--4--4--4--4--4--4--|--5----5-------------|
--5--5--5--5--5--5--5-----|--------------------------|-------5/-----10--10-|
--------------------------|--------------------------|---------------------|


                                                             
--------12--------------------|--------11--------11---------|
------------------------------|-----------------------------|
----10--10----10--10--10--10--|-----------------------------|
------------------------------|--10----------10------10--9--|


                                                      
----14-------14---------|--------16--------18----19--|
------------------------|----------------------------|
------------------------|----------------------------|
----------9------9/-----|--15----------15------------|


                                                            
--------------------------------|--------------------------|
--------------------------------|--------------------------|
--------------------------------|--------------------------|
----15--15--15--15--15--15--15/-|--7--7--7--7--7--7--7--7--|


                                                                          
--------------------------|--------------------------|-------------------|
--------------------------|--------------------------|-------------------|
--------------------------|--------------------------|-------------------|
--7--7--7--7--7--7--7--7/-|--3--3--3--3--3--3--3--3--|--3----------------|


                                                                            
------|----|----|----|--------------------------|--------------------------|
------|----|----|----|--------------------------|--------------------------|
------|----|----|----|--------------------------|--------------------------|
------|----|----|----|--7--7--7--7--7--7--7--7/-|--3--3--3--3--3--3--3--3--|


                                                      
--------------------------|--------------------------|
--------------------------|--------------------------|
--------------------------|--------------------------|
--7--7--7--7--7--7--7--7/-|--3--3--3--3--3--3--3--3--|


                                                      
--------------------------|--------------------------|
--------------------------|--------------------------|
--------------------------|--------------------------|
--7--7--7--7--7--7--7--7/-|--3--3--3--3--3--3--3--3--|


                                                      
--------------------------|--------------------------|
--------------------------|--------------------------|
--------------------------|--------------------------|
--7--7--7--7--7--7--7--7/-|--3--3--3--3--3--3--3--3--|


                                                      
--------------------------|--------------------------|
--------------------------|--------------------------|
--------------------------|--------------------------|
--5--5--5--5--5--5--5--5--|--5--5--5--5--5--5--5--5--|


                                                                            
--------------------------|--------------------------|--------------|------|
--------------------------|--------------------------|--------------|------|
--------------------------|--------------------------|--------------|------|
--5--5--5--5--5--5--5--5--|--5--5--5--5--5--5--5--5--|--------------|------|


                                                                          
----------------------|-----------------------|--------------------------|
----------------------|-----------------------|-----------------------4--|
----------------------|-----------------------|--5--5--5--5--5--5--5-----|
--3----3------3----3--|----3--3----3--3--3----|--------------------------|


                                                    
--------------------------|--------------------12--|
--4--4--4--4--4--4--4--4--|--5----5----------------|
--------------------------|-------5/-----10----10--|
--------------------------|------------------------|


                                                             
--------12--------------------|--------11--------11---------|
------------------------------|-----------------------------|
----10--10----10--10--10--10--|-----------------------------|
------------------------------|--10----------10------10--9--|


                                                      
----14-------14---------|--------16--------18----19--|
------------------------|----------------------------|
------------------------|----------------------------|
----------9------9/-----|--15----------15------------|


                                                            
--------------------------------|--------------------------|
--------------------------------|--------------------------|
--------------------------------|--------------------------|
----15--15--15--15--15--15--15/-|--7--7--7--7--7--7--7--7--|


                                                      
--------------------------|--------------------------|
--------------------------|--------------------------|
--------------------------|--------------------------|
--7--7--7--7--7--7--7--7/-|--3--3--3--3--3--3--3--3--|


                                                      
--------------------------|--------------------------|
--------------------------|--------------------------|
--------------------------|--2--2--2--2--2--2--2--4--|
--3--3--3--3--3--3--3--3--|--------------------------|


                                                      
--------------------------|--------------------------|
--------------------------|--------------------------|
--5--5--5--5--5--5--5--5--|--------------------------|
--------------------------|--3--3--3--3--3--3--3--3--|


                                                      
--------------------------|--------------------------|
--5--5--4--4--2--2--------|--------------------------|
--------------------5--5--|--2--2--2--2--2--2--2--4--|
--------------------------|--------------------------|


                                                      
--------------------------|--------------------------|
--------------------------|--------------------------|
--5--5--5--5--5--5--5--5--|--------------------------|
--------------------------|--3--3--3--3--3--3--3--3--|


                                                        
|---------------------------|--------------------------|
|*--5--5--4--4--2--2--------|--------------------------|
|*--------------------5--5--|--2--2--2--2--2--2--2--4--|
|---------------------------|--------------------------|


                                                      
--------------------------|--------------------------|
--------------------------|--------------------------|
--5--5--5--5--5--5--5--5--|--------------------------|
--------------------------|--3--3--3--3--3--3--3--3--|


                                                                       
--------------------------|---------------------|------|------|------||
--5--5--7--7--9--9--7--7--|--4--4--4------------|------|------|------||
--------------------------|--2--2--2------------|------|------|------||
--------------------------|---------------------|------|------|------||
Comments