Matches - Destination Nowhere Near Chords & Tabs

 

Destination Nowhere Near Chords & Tabs

Matches Chords & Tabs

Version: 2 Type: Tab 0 ratings
1 star 2 stars 3 stars 4 stars 5 stars
comments

Destination Nowhere Near Tab

I tabbed the rythem guitar then the lead, if your good you can put them together.  This song is 100% correct

Rhythm Guitar (Shawn)

                                                              
E||-------------------|-------------------|-------------------|
B||--5----------------|--5----------------|--5----------------|
G||-------------------|-------------------|-------------------|
D||-------------------|-------------------|-------------------|
A||--4----------------|--5----------------|-------------------|
E||-------------------|-------------------|--5----------------|


                                                                               
------------------|-------------------|-------------------|----------------|
------------------|--5----------------|--5----------------|--5-------------|
------------------|-------------------|-------------------|----------------|
------------------|-------------------|-------------------|----------------|
------------------|--4----------------|--5----------------|----------------|
------------------|-------------------|-------------------|--5--------------


                                                                               
------------------|-------------------|-------------------|----------------|
------------------|--5----------------|--5----------------|--5-------------|
------------------|-------------------|-------------------|----------------|
------------------|-------------------|-------------------|----------------|
------------------|--4----------------|--5----------------|--4-------------|
------------------|-------------------|-------------------|----------------|


                                                                                


-------------------|-------------------|-------------------|---------------|
--5----------------|--5----------------|--5----------------|---------------|
-------------------|-------------------|-------------------|--9------------|
-------------------|-------------------|-------------------|--9------------|
--5----------------|--4----------------|--5----------------|--7------------|
-------------------|-------------------|-------------------|---------------|


                                                                  
--------------------------------------|--------------------------|
--------------------------------------|--------------------------|
--9--9--9--9--9--9--9--9--9--9--9--9--|--------------------------|
--9--9--9--9--9--9--9--9--9--9--9--9--|--7-----7-----7-----7-----|
--7--7--7--7--7--7--7--7--7--7--7--7--|--7-----7-----7-----7-----|
--------------------------------------|--5--0--5--0--5--0--5--0--|


                                                                     
--------------------------|--------------------|--------------------|
--------------------------|--------------------|--------------------|
--------------------------|--7--------7--------|--9--------9--------|
--7-----7-----7-----7-----|--7--------7--------|--9--------9--------|
--7-----7-----7-----7-----|--5--------5--------|--7--------7--------|
--5--0--5--0--5--0--5--0--|--------------------|--------------------|


                                                                           
--------------------------|--------------------------|--------------------|
--------------------------|--------------------------|--------------------|
--------------------------|--------------------------|--7--------7--------|
--7-----7-----7-----7-----|--7-----7-----7-----7-----|--7--------7--------|
--7-----7-----7-----7-----|--7-----7-----7-----7-----|--5--------5--------|
--5--0--5--0--5--0--5--0--|--5--0--5--0--5--0--5--0--|--------------------|


                                                                 
--------------------|-------------------|-----------------------|
--------------------|----------------7--|----7--7----7--7--7----|
--9--------9--------|----------------7--|----7--7----7--7--7----|
--9--------9--------|----------------7--|----7--7----7--7--7----|
--7--------7--------|----------------5--|----5--5----5--5--5----|
--------------------|-------------------|-----------------------|


                                                                
-------------------|-----------------------|-------------------|
----------------9--|----9--9----9--9--9----|----------------7--|
----------------9--|----9--9----9--9--9----|----------------7--|
----------------9--|----9--9----9--9--9----|----------------7--|
----------------7--|----7--7----7--7--7----|----------------5--|
-------------------|-----------------------|-------------------|


                                               
-----------------------|----------------------|
----7--7----7--7--7----|----------------------|
----7--7----7--7--7----|--2----2----2----2----|
----7--7----7--7--7----|--2----2----2----2----|
----5--5----5--5--5----|--0----0----0----0----|
-----------------------|----------------------|


                                                                  
--------------------------------------|--------------------------|
--------------------------------------|--------------------------|
--9--9--9--9--9--9--9--9--9--9--9--9--|--6-----6-----6-----6-----|
--9--9--9--9--9--9--9--9--9--9--9--9--|--6-----6-----6-----6-----|
--7--7--7--7--7--7--7--7--7--7--7--7--|--4--0--4--0--4--0--4--0--|
--------------------------------------|--------------------------|



                                                      
--------------------------|--------------------------|
--------------------------|--------------------------|
--7-----7-----7-----7-----|--------------------------|
--7-----7-----7-----7-----|--7-----7-----7-----7-----|
--5--0--5--0--5--0--5--0--|--7-----7-----7-----7-----|
--------------------------|--5--0--5--0--5--0--5--0--|




                                                      
--------------------------|--------------------------|
--------------------------|--------------------------|
--------------------------|--6-----6-----6-----6-----|
--7-----7-----7-----7-----|--6-----6-----6-----6-----|
--7-----7-----7-----7-----|--4--0--4--0--4--0--4--0--|
--5--0--5--0--5--0--5--0--|--------------------------|


                                                      
--------------------------|--------------------------|
--------------------------|--------------------------|
--7-----7-----7-----7-----|--------------------------|
--7-----7-----7-----7-----|--7-----7-----7-----7-----|
--5--0--5--0--5--0--5--0--|--7-----7-----7-----7-----|
--------------------------|--5--0--5--0--5--0--5--0--|




                                                                         
--------------------------|----------------------|----------------------|
--------------------------|----------------------|----------------------|
--------------------------|--6----6----6----6----|--7----7----7----7----|
--7-----7-----7-----7-----|--6----6----6----6----|--7----7----7----7----|
--7-----7-----7-----7-----|--4----4----4----4----|--5----5----5----5----|
--5--0--5--0--5--0--5--0--|----------------------|----------------------|


                                                                     
----------------------|----------------------|----------------------|
----------------------|----------------------|----------------------|
--6----6----6----6----|--7----7----7----7----|--6----6----6----6----|
--6----6----6----6----|--7----7----7----7----|--6----6----6----6----|
--4----4----4----4----|--5----5----5----5----|--4----4----4----4----|
----------------------|----------------------|----------------------|


                                              
----------------------|----------------------|
----------------------|----------------------|
--7----7----7----7----|--9----9----9----9----|
--7----7----7----7----|--9----9----9----9----|
--5----5----5----5----|--7----7----7----7----|
----------------------|----------------------|


                                                                  
--------------------------------------|--------------------------|
--------------------------------------|--------------------------|
--9--9--9--9--9--9--9--9--9--9--9--9--|--------------------------|
--9--9--9--9--9--9--9--9--9--9--9--9--|--7-----7-----7-----7-----|
--7--7--7--7--7--7--7--7--7--7--7--7--|--7-----7-----7-----7-----|
--------------------------------------|--5--0--5--0--5--0--5--0--|


                                                                     
--------------------------|--------------------|--------------------|
--------------------------|--------------------|--------------------|
--------------------------|--7--------7--------|--9--------9--------|
--7-----7-----7-----7-----|--7--------7--------|--9--------9--------|
--7-----7-----7-----7-----|--5--------5--------|--7--------7--------|
--5--0--5--0--5--0--5--0--|--------------------|--------------------|


                                                                           
--------------------------|--------------------------|--------------------|
--------------------------|--------------------------|--------------------|
--------------------------|--------------------------|--7--------7--------|
--7-----7-----7-----7-----|--7-----7-----7-----7-----|--7--------7--------|
--7-----7-----7-----7-----|--7-----7-----7-----7-----|--5--------5--------|
--5--0--5--0--5--0--5--0--|--5--0--5--0--5--0--5--0--|--------------------|



                                                                 
--------------------|-------------------|-----------------------|
--------------------|----------------7--|----7--7----7--7--7----|
--9--------9--------|----------------7--|----7--7----7--7--7----|
--9--------9--------|----------------7--|----7--7----7--7--7----|
--7--------7--------|----------------5--|----5--5----5--5--5----|
--------------------|-------------------|-----------------------|


                                                                
-------------------|-----------------------|-------------------|
----------------9--|----9--9----9--9--9----|----------------7--|
----------------9--|----9--9----9--9--9----|----------------7--|
----------------9--|----9--9----9--9--9----|----------------7--|
----------------7--|----7--7----7--7--7----|----------------5--|
-------------------|-----------------------|-------------------|



                                               
-----------------------|----------------------|
----7--7----7--7--7----|----------------------|
----7--7----7--7--7----|--2----2----2----2----|
----7--7----7--7--7----|--2----2----2----2----|
----5--5----5--5--5----|--0----0----0----0----|
-----------------------|----------------------|


                                                                  
--------------------------------------|--------------------------|
--------------------------------------|--------------------------|
--9--9--9--9--9--9--9--9--9--9--9--9--|--6-----6-----6-----6-----|
--9--9--9--9--9--9--9--9--9--9--9--9--|--6-----6-----6-----6-----|
--7--7--7--7--7--7--7--7--7--7--7--7--|--4--0--4--0--4--0--4--0--|
--------------------------------------|--------------------------|


                                                      
--------------------------|--------------------------|
--------------------------|--------------------------|
--7-----7-----7-----7-----|--------------------------|
--7-----7-----7-----7-----|--7-----7-----7-----7-----|
--5--0--5--0--5--0--5--0--|--7-----7-----7-----7-----|
--------------------------|--5--0--5--0--5--0--5--0--|




                                                      
--------------------------|--------------------------|
--------------------------|--------------------------|
--------------------------|--6-----6-----6-----6-----|
--7-----7-----7-----7-----|--6-----6-----6-----6-----|
--7-----7-----7-----7-----|--4--0--4--0--4--0--4--0--|
--5--0--5--0--5--0--5--0--|--------------------------|


                                                      
--------------------------|--------------------------|
--------------------------|--------------------------|
--7-----7-----7-----7-----|--------------------------|
--7-----7-----7-----7-----|--7-----7-----7-----7-----|
--5--0--5--0--5--0--5--0--|--7-----7-----7-----7-----|
--------------------------|--5--0--5--0--5--0--5--0--|


                                                                         
--------------------------|----------------------|----------------------|
--------------------------|----------------------|----------------------|
--------------------------|--6----6----6----6----|--7----7----7----7----|
--7-----7-----7-----7-----|--6----6----6----6----|--7----7----7----7----|
--7-----7-----7-----7-----|--4----4----4----4----|--5----5----5----5----|
--5--0--5--0--5--0--5--0--|----------------------|----------------------|


                                                                     
----------------------|----------------------|----------------------|
----------------------|----------------------|----------------------|
--6----6----6----6----|--7----7----7----7----|--6----6----6----6----|
--6----6----6----6----|--7----7----7----7----|--6----6----6----6----|
--4----4----4----4----|--5----5----5----5----|--4----4----4----4----|
----------------------|----------------------|----------------------|


                                              
----------------------|----------------------|
----------------------|----------------------|
--7----7----7----7----|--9----9----9----9----|
--7----7----7----7----|--9----9----9----9----|
--5----5----5----5----|--7----7----7----7----|
----------------------|----------------------|


                                                                               
--------------------------------------|--------------------|--------------|
--------------------------------------|--10----------------|--------------|
--9--9--9--9--9--9--9--9--9--9--9--9--|--10----------------|--------------|
--9--9--9--9--9--9--9--9--9--9--9--9--|--10----------------|--------------|
--7--7--7--7--7--7--7--7--7--7--7--7--|--8-----------------|--------------|
--------------------------------------|--------------------|--------------|


                                                                               
--8-----------------|------------------|--6----------------|---------------|
--8-----------------|------------------|--6----------------|---------------|
--9-----------------|------------------|--7----------------|---------------|
--10----------------|------------------|--8----------------|---------------|
--10----------------|------------------|--8----------------|---------------|
--8-----------------|------------------|--6----------------|---------------|


                                                                      
--5----------------|------------------|------------------------------|
--5----------------|------------------|----10--10--10----10--10--10--|
--6----------------|------------------|----10--10--10----10--10--10--|
--7----------------|------------------|----10--10--10----10--10--10--|
--7----------------|------------------|----8---8---8-----8---8---8---|
--5----------------|------------------|------------------------------|


                                                              


------------------------------|----8---8---8-----8---8---8---|
----10--10--10----10--10--10--|----8---8---8-----8---8---8---|
----10--10--10----10--10--10--|----9---9---9-----9---9---9---|
----10--10--10----10--10--10--|----10--10--10----10--10--10--|
----8---8---8-----8---8---8---|----10--10--10----10--10--10--|
------------------------------|----8---8---8-----8---8---8---|


                                                        
----8---8---8-----8---8---8---|----6--6--6----6--6--6--|
----8---8---8-----8---8---8---|----6--6--6----6--6--6--|
----9---9---9-----9---9---9---|----7--7--7----7--7--7--|
----10--10--10----10--10--10--|----8--8--8----8--8--8--|
----10--10--10----10--10--10--|----8--8--8----8--8--8--|
----8---8---8-----8---8---8---|----6--6--6----6--6--6--|


                                                                           
----6--6--6----6--6--6--|----5--5--5----5--5--5--|----5--5--5----5--5--5--|
----6--6--6----6--6--6--|----5--5--5----5--5--5--|----5--5--5----5--5--5--|
----7--7--7----7--7--7--|----6--6--6----6--6--6--|----6--6--6----6--6--6--|
----8--8--8----8--8--8--|----7--7--7----7--7--7--|----7--7--7----7--7--7--|
----8--8--8----8--8--8--|----7--7--7----7--7--7--|----7--7--7----7--7--7--|
----6--6--6----6--6--6--|----5--5--5----5--5--5--|----5--5--5----5--5--5--|


                                                              
------------------------------|------------------------------|
----10--10--10----10--10--10--|----10--10--10----10--10--10--|
----10--10--10----10--10--10--|----10--10--10----10--10--10--|
----10--10--10----10--10--10--|----10--10--10----10--10--10--|
----8---8---8-----8---8---8---|----8---8---8-----8---8---8---|
------------------------------|------------------------------|



                                                              
----8---8---8-----8---8---8---|----8---8---8-----8---8---8---|
----8---8---8-----8---8---8---|----8---8---8-----8---8---8---|
----9---9---9-----9---9---9---|----9---9---9-----9---9---9---|
----10--10--10----10--10--10--|----10--10--10----10--10--10--|
----10--10--10----10--10--10--|----10--10--10----10--10--10--|
----8---8---8-----8---8---8---|----8---8---8-----8---8---8---|



                                                  
----6--6--6----6--6--6--|----6--6--6----6--6--6--|
----6--6--6----6--6--6--|----6--6--6----6--6--6--|
----7--7--7----7--7--7--|----7--7--7----7--7--7--|
----8--8--8----8--8--8--|----8--8--8----8--8--8--|
----8--8--8----8--8--8--|----8--8--8----8--8--8--|
----6--6--6----6--6--6--|----6--6--6----6--6--6--|


                                                            
--------------------------------------|--------------------|
--------------------------------------|--------------------|
--------------------------------------|---------------9----|
--7--7--7--7--7--7--7--7--7--7--7--7--|--7------------9----|
--7--7--7--7--7--7--7--7--7--7--7--7--|--7------------7----|
--5--5--5--5--5--5--5--5--5--5--5--5--|--5-----------------|


                                                      
--------------------------|--------------------------|
--------------------------|--------------------------|
--6-----6-----6-----6-----|--7-----7-----7-----7-----|
--6-----6-----6-----6-----|--7-----7-----7-----7-----|
--4--0--4--0--4--0--4--0--|--5--0--5--0--5--0--5--0--|
--------------------------|--------------------------|


                                                      
--------------------------|--------------------------|
--------------------------|--------------------------|
--------------------------|--------------------------|
--7-----7-----7-----7-----|--7-----7-----7-----7-----|
--7-----7-----7-----7-----|--7-----7-----7-----7-----|
--5--0--5--0--5--0--5--0--|--5--0--5--0--5--0--5--0--|


                                                      
--------------------------|--------------------------|
--------------------------|--------------------------|
--6-----6-----6-----6-----|--7-----7-----7-----7-----|
--6-----6-----6-----6-----|--7-----7-----7-----7-----|
--4--0--4--0--4--0--4--0--|--5--0--5--0--5--0--5--0--|
--------------------------|--------------------------|


                                                                             
--------------------------|--------------------------|---------------------|
--------------------------|--------------------------|---------------------|
--------------------------|--------------------------|--6----6----6----6---|
--7-----7-----7-----7-----|--7-----7-----7-----7-----|--6----6----6----6---|
--7-----7-----7-----7-----|--7-----7-----7-----7-----|--4----4----4----4---|
--5--0--5--0--5--0--5--0--|--5--0--5--0--5--0--5--0--|---------------------|


                                                                     
----------------------|----------------------|----------------------|
----------------------|----------------------|----------------------|
--7----7----7----7----|--6----6----6----6----|--7----7----7----7----|
--7----7----7----7----|--6----6----6----6----|--7----7----7----7----|
--5----5----5----5----|--4----4----4----4----|--5----5----5----5----|
----------------------|----------------------|----------------------|


                                                                     
----------------------|----------------------|----------------------|
----------------------|----------------------|----------------------|
--6----6----6----6----|--7----7----7----7----|--9----9----9----9----|
--6----6----6----6----|--7----7----7----7----|--9----9----9----9----|
--4----4----4----4----|--5----5----5----5----|--7----7----7----7----|
----------------------|----------------------|----------------------|

[ Tab from: http://www.guitartabs.cc/tabs/m/matches/destination_nowhere_near_tab_ver_2.html ]
                                                            
--------------------------------------|-------------------||
--------------------------------------|-------------------||
--9--9--9--9--9--9--9--9--9--9--9--9--|-------------------||
--9--9--9--9--9--9--9--9--9--9--9--9--|--7----------------||
--7--7--7--7--7--7--7--7--7--7--7--7--|--7----------------||
--------------------------------------|--5----------------||

Rhythm Guitar (Shawn)




                                                               
E||-------------------|-------------------|-------------------|
B||--5----------------|--5----------------|--5----------------|
G||-------------------|-------------------|-------------------|
D||-------------------|-------------------|-------------------|
A||--4----------------|--5----------------|-------------------|
E||-------------------|-------------------|--5----------------|


                                                                               
------------------|-------------------|-------------------|----------------|
------------------|--5----------------|--5----------------|--5-------------|
------------------|-------------------|-------------------|----------------|
------------------|-------------------|-------------------|----------------|
------------------|--4----------------|--5----------------|----------------|
------------------|-------------------|-------------------|--5-------------|


                                                                               
------------------|-------------------|-------------------|----------------|
------------------|--5----------------|--5----------------|--5-------------|
------------------|-------------------|-------------------|----------------|
------------------|-------------------|-------------------|----------------|
------------------|--4----------------|--5----------------|--4-------------|
------------------|-------------------|-------------------|--------_-------|


                                                                                


-------------------|-------------------|-------------------|---------------|
--5----------------|--5----------------|--5----------------|---------------|
-------------------|-------------------|-------------------|--9------------|
-------------------|-------------------|-------------------|--9------------|
--5----------------|--4----------------|--5----------------|--7------------|
-------------------|-------------------|-------------------|---------------|


                                                                  
--------------------------------------|--------------------------|
--------------------------------------|--------------------------|
--9--9--9--9--9--9--9--9--9--9--9--9--|--------------------------|
--9--9--9--9--9--9--9--9--9--9--9--9--|--7-----7-----7-----7-----|
--7--7--7--7--7--7--7--7--7--7--7--7--|--7-----7-----7-----7-----|
--------------------------------------|--5--0--5--0--5--0--5--0--|


                                                                     
--------------------------|--------------------|--------------------|
--------------------------|--------------------|--------------------|
--------------------------|--7--------7--------|--9--------9--------|
--7-----7-----7-----7-----|--7--------7--------|--9--------9--------|
--7-----7-----7-----7-----|--5--------5--------|--7--------7--------|
--5--0--5--0--5--0--5--0--|--------------------|--------------------|


                                                                           
--------------------------|--------------------------|--------------------|
--------------------------|--------------------------|--------------------|
--------------------------|--------------------------|--7--------7--------|
--7-----7-----7-----7-----|--7-----7-----7-----7-----|--7--------7--------|
--7-----7-----7-----7-----|--7-----7-----7-----7-----|--5--------5--------|
--5--0--5--0--5--0--5--0--|--5--0--5--0--5--0--5--0--|--------------------|


                                                                 
--------------------|-------------------|-----------------------|
--------------------|----------------7--|----7--7----7--7--7----|
--9--------9--------|----------------7--|----7--7----7--7--7----|
--9--------9--------|----------------7--|----7--7----7--7--7----|
--7--------7--------|----------------5--|----5--5----5--5--5----|
--------------------|-------------------|-----------------------|


                                                                
-------------------|-----------------------|-------------------|
----------------9--|----9--9----9--9--9----|----------------7--|
----------------9--|----9--9----9--9--9----|----------------7--|
----------------9--|----9--9----9--9--9----|----------------7--|
----------------7--|----7--7----7--7--7----|----------------5--|
-------------------|-----------------------|-------------------|


                                               
-----------------------|----------------------|
----7--7----7--7--7----|----------------------|
----7--7----7--7--7----|--2----2----2----2----|
----7--7----7--7--7----|--2----2----2----2----|
----5--5----5--5--5----|--0----0----0----0----|
-----------------------|----------------------|


                                                                  
--------------------------------------|--------------------------|
--------------------------------------|--------------------------|
--9--9--9--9--9--9--9--9--9--9--9--9--|--6-----6-----6-----6-----|
--9--9--9--9--9--9--9--9--9--9--9--9--|--6-----6-----6-----6-----|
--7--7--7--7--7--7--7--7--7--7--7--7--|--4--0--4--0--4--0--4--0--|
--------------------------------------|--------------------------|



                                                      
--------------------------|--------------------------|
--------------------------|--------------------------|
--7-----7-----7-----7-----|--------------------------|
--7-----7-----7-----7-----|--7-----7-----7-----7-----|
--5--0--5--0--5--0--5--0--|--7-----7-----7-----7-----|
--------------------------|--5--0--5--0--5--0--5--0--|




                                                      
--------------------------|--------------------------|
--------------------------|--------------------------|
--------------------------|--6-----6-----6-----6-----|
--7-----7-----7-----7-----|--6-----6-----6-----6-----|
--7-----7-----7-----7-----|--4--0--4--0--4--0--4--0--|
--5--0--5--0--5--0--5--0--|--------------------------|


                                                      
--------------------------|--------------------------|
--------------------------|--------------------------|
--7-----7-----7-----7-----|--------------------------|
--7-----7-----7-----7-----|--7-----7-----7-----7-----|
--5--0--5--0--5--0--5--0--|--7-----7-----7-----7-----|
--------------------------|--5--0--5--0--5--0--5--0--|




                                                                         
--------------------------|----------------------|----------------------|
--------------------------|----------------------|----------------------|
--------------------------|--6----6----6----6----|--7----7----7----7----|
--7-----7-----7-----7-----|--6----6----6----6----|--7----7----7----7----|
--7-----7-----7-----7-----|--4----4----4----4----|--5----5----5----5----|
--5--0--5--0--5--0--5--0--|----------------------|----------------------|


                                                                     
----------------------|----------------------|----------------------|
----------------------|----------------------|----------------------|
--6----6----6----6----|--7----7----7----7----|--6----6----6----6----|
--6----6----6----6----|--7----7----7----7----|--6----6----6----6----|
--4----4----4----4----|--5----5----5----5----|--4----4----4----4----|
----------------------|----------------------|----------------------|


                                              
----------------------|----------------------|
----------------------|----------------------|
--7----7----7----7----|--9----9----9----9----|
--7----7----7----7----|--9----9----9----9----|
--5----5----5----5----|--7----7----7----7----|
----------------------|----------------------|


                                                                  
--------------------------------------|--------------------------|
--------------------------------------|--------------------------|
--9--9--9--9--9--9--9--9--9--9--9--9--|--------------------------|
--9--9--9--9--9--9--9--9--9--9--9--9--|--7-----7-----7-----7-----|
--7--7--7--7--7--7--7--7--7--7--7--7--|--7-----7-----7-----7-----|
--------------------------------------|--5--0--5--0--5--0--5--0--|


                                                                     
--------------------------|--------------------|--------------------|
--------------------------|--------------------|--------------------|
--------------------------|--7--------7--------|--9--------9--------|
--7-----7-----7-----7-----|--7--------7--------|--9--------9--------|
--7-----7-----7-----7-----|--5--------5--------|--7--------7--------|
--5--0--5--0--5--0--5--0--|--------------------|--------------------|


                                                                           
--------------------------|--------------------------|--------------------|
--------------------------|--------------------------|--------------------|
--------------------------|--------------------------|--7--------7--------|
--7-----7-----7-----7-----|--7-----7-----7-----7-----|--7--------7--------|
--7-----7-----7-----7-----|--7-----7-----7-----7-----|--5--------5--------|
--5--0--5--0--5--0--5--0--|--5--0--5--0--5--0--5--0--|--------------------|



                                                                 
--------------------|-------------------|-----------------------|
--------------------|----------------7--|----7--7----7--7--7----|
--9--------9--------|----------------7--|----7--7----7--7--7----|
--9--------9--------|----------------7--|----7--7----7--7--7----|
--7--------7--------|----------------5--|----5--5----5--5--5----|
--------------------|-------------------|-----------------------|


                                                                
-------------------|-----------------------|-------------------|
----------------9--|----9--9----9--9--9----|----------------7--|
----------------9--|----9--9----9--9--9----|----------------7--|
----------------9--|----9--9----9--9--9----|----------------7--|
----------------7--|----7--7----7--7--7----|----------------5--|
-------------------|-----------------------|-------------------|



                                               
-----------------------|----------------------|
----7--7----7--7--7----|----------------------|
----7--7----7--7--7----|--2----2----2----2----|
----7--7----7--7--7----|--2----2----2----2----|
----5--5----5--5--5----|--0----0----0----0----|
-----------------------|----------------------|


                                                                  
--------------------------------------|--------------------------|
--------------------------------------|--------------------------|
--9--9--9--9--9--9--9--9--9--9--9--9--|--6-----6-----6-----6-----|
--9--9--9--9--9--9--9--9--9--9--9--9--|--6-----6-----6-----6-----|
--7--7--7--7--7--7--7--7--7--7--7--7--|--4--0--4--0--4--0--4--0--|
--------------------------------------|--------------------------|


                                                      
--------------------------|--------------------------|
--------------------------|--------------------------|
--7-----7-----7-----7-----|--------------------------|
--7-----7-----7-----7-----|--7-----7-----7-----7-----|
--5--0--5--0--5--0--5--0--|--7-----7-----7-----7-----|
--------------------------|--5--0--5--0--5--0--5--0--|




                                                      
--------------------------|--------------------------|
--------------------------|--------------------------|
--------------------------|--6-----6-----6-----6-----|
--7-----7-----7-----7-----|--6-----6-----6-----6-----|
--7-----7-----7-----7-----|--4--0--4--0--4--0--4--0--|
--5--0--5--0--5--0--5--0--|--------------------------|


                                                      
--------------------------|--------------------------|
--------------------------|--------------------------|
--7-----7-----7-----7-----|--------------------------|
--7-----7-----7-----7-----|--7-----7-----7-----7-----|
--5--0--5--0--5--0--5--0--|--7-----7-----7-----7-----|
--------------------------|--5--0--5--0--5--0--5--0--|


                                                                         
--------------------------|----------------------|----------------------|
--------------------------|----------------------|----------------------|
--------------------------|--6----6----6----6----|--7----7----7----7----|
--7-----7-----7-----7-----|--6----6----6----6----|--7----7----7----7----|
--7-----7-----7-----7-----|--4----4----4----4----|--5----5----5----5----|
--5--0--5--0--5--0--5--0--|----------------------|----------------------|


                                                                     
----------------------|----------------------|----------------------|
----------------------|----------------------|----------------------|
--6----6----6----6----|--7----7----7----7----|--6----6----6----6----|
--6----6----6----6----|--7----7----7----7----|--6----6----6----6----|
--4----4----4----4----|--5----5----5----5----|--4----4----4----4----|
----------------------|----------------------|----------------------|


                                              
----------------------|----------------------|
----------------------|----------------------|
--7----7----7----7----|--9----9----9----9----|
--7----7----7----7----|--9----9----9----9----|
--5----5----5----5----|--7----7----7----7----|
----------------------|----------------------|


                                                                               
--------------------------------------|--------------------|--------------|
--------------------------------------|--10----------------|--------------|
--9--9--9--9--9--9--9--9--9--9--9--9--|--10----------------|--------------|
--9--9--9--9--9--9--9--9--9--9--9--9--|--10----------------|--------------|
--7--7--7--7--7--7--7--7--7--7--7--7--|--8-----------------|--------------|
--------------------------------------|--------------------|--------------|


                                                                               
--8-----------------|------------------|--6----------------|--------------|
--8-----------------|------------------|--6----------------|--------------|
--9-----------------|------------------|--7----------------|--------------|
--10----------------|------------------|--8----------------|--------------|
--10----------------|------------------|--8----------------|--------------|
--8-----------------|------------------|--6----------------|--------------|


                                                                      
--5----------------|------------------|------------------------------|
--5----------------|------------------|----10--10--10----10--10--10--|
--6----------------|------------------|----10--10--10----10--10--10--|
--7----------------|------------------|----10--10--10----10--10--10--|
--7----------------|------------------|----8---8---8-----8---8---8---|
--5----------------|------------------|------------------------------|


                                                              


------------------------------|----8---8---8-----8---8---8---|
----10--10--10----10--10--10--|----8---8---8-----8---8---8---|
----10--10--10----10--10--10--|----9---9---9-----9---9---9---|
----10--10--10----10--10--10--|----10--10--10----10--10--10--|
----8---8---8-----8---8---8---|----10--10--10----10--10--10--|
------------------------------|----8---8---8-----8---8---8---|


                                                        
----8---8---8-----8---8---8---|----6--6--6----6--6--6--|
----8---8---8-----8---8---8---|----6--6--6----6--6--6--|
----9---9---9-----9---9---9---|----7--7--7----7--7--7--|
----10--10--10----10--10--10--|----8--8--8----8--8--8--|
----10--10--10----10--10--10--|----8--8--8----8--8--8--|
----8---8---8-----8---8---8---|----6--6--6----6--6--6--|


                                                                           
----6--6--6----6--6--6--|----5--5--5----5--5--5--|----5--5--5----5--5--5--|
----6--6--6----6--6--6--|----5--5--5----5--5--5--|----5--5--5----5--5--5--|
----7--7--7----7--7--7--|----6--6--6----6--6--6--|----6--6--6----6--6--6--|
----8--8--8----8--8--8--|----7--7--7----7--7--7--|----7--7--7----7--7--7--|
----8--8--8----8--8--8--|----7--7--7----7--7--7--|----7--7--7----7--7--7--|
----6--6--6----6--6--6--|----5--5--5----5--5--5--|----5--5--5----5--5--5--|


                                                              
------------------------------|------------------------------|
----10--10--10----10--10--10--|----10--10--10----10--10--10--|
----10--10--10----10--10--10--|----10--10--10----10--10--10--|
----10--10--10----10--10--10--|----10--10--10----10--10--10--|
----8---8---8-----8---8---8---|----8---8---8-----8---8---8---|
------------------------------|------------------------------|



                                                              
----8---8---8-----8---8---8---|----8---8---8-----8---8---8---|
----8---8---8-----8---8---8---|----8---8---8-----8---8---8---|
----9---9---9-----9---9---9---|----9---9---9-----9---9---9---|
----10--10--10----10--10--10--|----10--10--10----10--10--10--|
----10--10--10----10--10--10--|----10--10--10----10--10--10--|
----8---8---8-----8---8---8---|----8---8---8-----8---8---8---|



                                                  
----6--6--6----6--6--6--|----6--6--6----6--6--6--|
----6--6--6----6--6--6--|----6--6--6----6--6--6--|
----7--7--7----7--7--7--|----7--7--7----7--7--7--|
----8--8--8----8--8--8--|----8--8--8----8--8--8--|
----8--8--8----8--8--8--|----8--8--8----8--8--8--|
----6--6--6----6--6--6--|----6--6--6----6--6--6--|


                                                            
--------------------------------------|--------------------|
--------------------------------------|--------------------|
--------------------------------------|---------------9----|
--7--7--7--7--7--7--7--7--7--7--7--7--|--7------------9----|
--7--7--7--7--7--7--7--7--7--7--7--7--|--7------------7----|
--5--5--5--5--5--5--5--5--5--5--5--5--|--5-----------------|


                                                      
--------------------------|--------------------------|
--------------------------|--------------------------|
--6-----6-----6-----6-----|--7-----7-----7-----7-----|
--6-----6-----6-----6-----|--7-----7-----7-----7-----|
--4--0--4--0--4--0--4--0--|--5--0--5--0--5--0--5--0--|
--------------------------|--------------------------|


                                                      
--------------------------|--------------------------|
--------------------------|--------------------------|
--------------------------|--------------------------|
--7-----7-----7-----7-----|--7-----7-----7-----7-----|
--7-----7-----7-----7-----|--7-----7-----7-----7-----|
--5--0--5--0--5--0--5--0--|--5--0--5--0--5--0--5--0--|


                                                      
--------------------------|--------------------------|
--------------------------|--------------------------|
--6-----6-----6-----6-----|--7-----7-----7-----7-----|
--6-----6-----6-----6-----|--7-----7-----7-----7-----|
--4--0--4--0--4--0--4--0--|--5--0--5--0--5--0--5--0--|
--------------------------|--------------------------|


                                                                             
--------------------------|--------------------------|----------------------|
--------------------------|--------------------------|---------------------|
--------------------------|--------------------------|--6----6----6----6---|
--7-----7-----7-----7-----|--7-----7-----7-----7-----|--6----6----6----6---|
--7-----7-----7-----7-----|--7-----7-----7-----7-----|--4----4----4----4---|
--5--0--5--0--5--0--5--0--|--5--0--5--0--5--0--5--0--|---------------------|


                                                                     
----------------------|----------------------|----------------------|
----------------------|----------------------|----------------------|
--7----7----7----7----|--6----6----6----6----|--7----7----7----7----|
--7----7----7----7----|--6----6----6----6----|--7----7----7----7----|
--5----5----5----5----|--4----4----4----4----|--5----5----5----5----|
----------------------|----------------------|----------------------|


                                                                     
----------------------|----------------------|----------------------|
----------------------|----------------------|----------------------|
--6----6----6----6----|--7----7----7----7----|--9----9----9----9----|
--6----6----6----6----|--7----7----7----7----|--9----9----9----9----|
--4----4----4----4----|--5----5----5----5----|--7----7----7----7----|
----------------------|----------------------|----------------------|


                                                            
--------------------------------------|-------------------||
--------------------------------------|-------------------||
--9--9--9--9--9--9--9--9--9--9--9--9--|-------------------||
--9--9--9--9--9--9--9--9--9--9--9--9--|--7----------------||
--7--7--7--7--7--7--7--7--7--7--7--7--|--7----------------||
--------------------------------------|--5----------------||
Comments