Matches - December Is For Cynics Chords & Tabs

 

December Is For Cynics Chords & Tabs

Matches Chords & Tabs

Version: 1 Type: Bass Tab

December Is For Cynics Bass Tab

   
This my favorite Christmas song!

Tabbed by the Jackal

Standard tuning

Intro x2
G|--------------------------------------------------------------------------|
D|------0h2---------------0h2----------------0h2----------------0h2-22-3-0--|
A|-0h3----------------0h3----------------0h3----------------0h3-------------|
E|--------------------------------------------------------------------------|

Verse, play as many times as needed
G|-------------------------------------------------------------|
D|-------------------------------------------------------------|
A|------0h2----0h2----0h2----0h2-------------------------------|
E|-0h3----0h3----0h3----0h3------------------------------------|

Middle of 1st verse (whoa whoa whoa)
G|---------------------------------------------------------------------|
D|---------2---2---------------------------2---2-----------------------|
A|--0---0-----------------3--2---0----0--------------------------------| then go back to
E|-----------------3----3--------------------------3---3----3----------| the regular verse

End of 1st verse:
G|-----------|
D|-----------|
A|-----------|
E|-12////-|

End of second verse:
G|------------------------------------------------------------------------------|
D|------------------------------------------------------------------------------|
A|------------------------------------------------------------------------------|
E|-55555555-33333333-55555555-33333333--12////----------------------------------|
[ Tab from: http://www.guitartabs.cc/tabs/m/matches/december_is_for_cynics_btab.html ]
Chorus
G|-----------------------------------------------------------------------------------|
D|-----------------------------------------------------------------------------------|
A|--3-------------------------3-------------------------3-------------------------3--|
E|----1---------------3--------1----------------3-------1-----------------3------1---|

End of first Chorus             End of second chorus
G|--------------------------|---------------------------------------------------|
D|--------------------------|---------------------------------------------------|
A|--------------------------|---------------------------------------------------|
E|-1-1-3-3-3-3--3--3--|--1-1-3-3-3-3--3-----------------------------------------|

Bridge
G|----------2-------------------------------------------------2---------------------|
D|------22---2------------------------------------------22---2----------------------|
A|--0------------0-2---3---5-----------------------0------------0-2---3---5---------|
E|--------------------------------3----1---0---1------------------------------------|

G|--------------------------------------------------------------------------------------|
D|--------------------------------------------------------------------------------------|
A|--------------------------------------------------------------------------------------|
E|--3----1---0---1-1-1-1-1-1-1-1-3-3-3-3-3-3-3-3-1-1-1-1-1-1-1-1------------------------|

G|-------------------------------------------------------------------------------|
D|-------------------------------------------------------------------------------|
A|-------------------------------------------------------------------------------|
E|-55555555------55555555-------55555555------55555555---------------------------|

Then they just sing without music for awhile. then they do this:
G|------------------------------------------------------------------------------------|
D|------------------------------------------------------------------------------------|
A|--3-----------------3------------------3----------------3---------------------------|
E|----1----5----5------1----5----5------1----5----5-----1--1-1-3-3-3-3----------------|

And it's over.