Matches - Audio Blood Chords & Tabs

 

Audio Blood Chords & Tabs

Matches Chords & Tabs

Version: 3 Type: Tab 0 ratings
1 star 2 stars 3 stars 4 stars 5 stars
comments

Audio Blood Tab

   
i tabbed the lead guitar then the rythem guitar, if your good enough you can put them together

Lead Guitar (Jon)

E||------|--------------------------|--------------------------|
B||------|--------------------------|--------------------------|
G||------|--------------------------|--------------------------|
D||------|--9--9--9--9--9--9--9--9--|--9--9--9--9--9--9--9--9--|
A||------|--------------------------|--------------------------|
E||------|--------------------------|--------------------------|

--------------------------|--------x--x--------x--x--|
--------------------------|--------x--x--------x--x--|
--------------------------|--------x--x--------x--x--|
--6--6--6--6--6--6--6--6--|--4--4--x--x--4--4--x--x--|
--------------------------|--4--4--x--x--4--4--x--x--|
--------------------------|--2--2--x--x--2--2--x--x--|

--------x--x--------x--x--|--------x--x--------x--x--|
--------x--x--------x--x--|--------x--x--------x--x--|
--------x--x--------x--x--|--7--7--x--x--7--7--x--x--|
--4--4--x--x--4--4--x--x--|--7--7--x--x--7--7--x--x--|
--4--4--x--x--4--4--x--x--|--5--5--x--x--5--5--x--x--|
--2--2--x--x--2--2--x--x--|--------x--x--------x--x--|

--------x--x--------x--x--|--------x--x--------x--x--|
--------x--x--------x--x--|--------x--x--------x--x--|
--------x--x--------x--x--|--------x--x--------x--x--|
--7--7--x--x--7--7--x--x--|--4--4--x--x--4--4--x--x--|
--7--7--x--x--7--7--x--x--|--4--4--x--x--4--4--x--x--|
--5--5--x--x--5--5--x--x--|--2--2--x--x--2--2--x--x--|


--------x--x--------x--x--|--------x--x--------x--x--|
--------x--x--------x--x--|--------x--x--------x--x--|
--------x--x--------x--x--|--7--7--x--x--7--7--x--x--|
--4--4--x--x--4--4--x--x--|--7--7--x--x--7--7--x--x--|
--4--4--x--x--4--4--x--x--|--5--5--x--x--5--5--x--x--|
--2--2--x--x--2--2--x--x--|--------x--x--------x--x--|


                           octaver effect on
--------x--x--------x--x--|------------------------------|
--------x--x--------x--x--|--------10--10--------10--10--|
--------x--x--------x--x--|------------------------------|
--7--7--x--x--7--7--x--x--|------------------------------|
--7--7--x--x--7--7--x--x--|--9--9----------9--9----------|
--5--5--x--x--5--5--x--x--|------------------------------|

---------------------------|--x--x--x--x--x--x--x--x--|
--------9--9--------9/-10--|--x--x--x--x--x--x--x--x--|
---------------------------|--x--x--x--x--x--x--x--x--|
---------------------------|--x--x--x--x--x--x--x--x--|
--9--9--------9--9---------|--x--x--x--x--x--x--x--x--|
---------------------------|--x--x--x--x--x--x--x--x--|


--x--x--x--x--x--x--------|------------------------------|
--x--x--x--x--x--x--------|--------10--10--------10--10--|
--x--x--x--x--x--x--------|------------------------------|
--x--x--x--x--x--x--------|------------------------------|
--x--x--x--x--x--x--------|--9--9----------9--9----------|
--x--x--x--x--x--x--5--5--|------------------------------|

---------------------------|--x--x--x--x--x--x--x--x--|
--------9--9--------9/-10--|--x--x--x--x--x--x--x--x--|
---------------------------|--x--x--x--x--x--x--x--x--|
---------------------------|--x--x--x--x--x--x--x--x--|
--9--9--------9--9---------|--x--x--x--x--x--x--x--x--|
---------------------------|--x--x--x--x--x--x--x--x--|


                               octaver off
--x--x--x--x--x--x--------|---------------------|--5--5--5--5--5-----------|
--x--x--x--x--x--x--------|---------------------|--------------------------|
--x--x--x--x--x--x--------|---------------------|--------------------------|
--x--x--x--x--x--x--------|------------5--7--7--|-----------------5--7--7--|
--x--x--x--x--x--x--------|------------5--7--7--|-----------------5--7--7--|
--x--x--x--x--x--x--5--5--|------------3--5--5--|-----------------3--5--5--|

--------------------------|--17--17--17--17--17--17------|
--5--5--5--5--5-----------|------------------------------|
--------------------------|--14--14--14--14--14--14------|
-----------------5--7--7--|------------------------------|
-----------------5--7--7--|------------------------------|
-----------------3--5--5--|------------------------------|


--------------------------|--------------------------|---------------------|
--------------------------|--------------------------|---------------------|
--7--7--7--7--7--7--7--7--|--7--7--7--7--7--7--7--7--|--9----9----9/-11--9-|
--7--7--7--7--7--7--7--7--|--7--7--7--7--7--7--7--7--|---------------------|
--5--5--5--5--5--5--5--5--|--x--x--x--x--x--x--x--x--|--7----7----7/-9---7-|
--------------------------|--7--7--7--7--7--7--7--7--|---------------------|


------------------------|------------------------|------------------------|
------------------------|------------------------|------------------------|
--9----9----9/-11--9----|--9----9----9/-11--9----|--9----9----9/-11--9----|
------------------------|------------------------|------------------------|
--7----7----7/-9---7----|--7----7----7/-9---7----|--7----7----7/-9---7----|
------------------------|------------------------|------------------------|

----------------------|----------------------|----------------------|
----------------------|----------------------|----------------------|
----------------------|----------------------|----------------------|
--7--7------7--7------|--7--7------7--7------|--5--5------3--3------|
--7--7------7--7------|--7--7------7--7------|--5--5------3--3------|
--5--5------5--5------|--5--5------5--5------|--3--3------1--1------|


                                         wah......................
-------------------|------------------|----------------------------------|
-------------------|------------------|----------------------------------|
-------------------|------------------|----------14--14----------14--14--|
--2----------------|------------------|----------------------------------|
--2----------------|------------------|----------------------------------|
--0----------------|------------------|--14--14----------14--14----------|


wah....................................................
--------------------------------|--------------17--------|-----------------|
--------------------------------|--------14--------------|-----------------|
----14--13------13--------------|--------------------16r-|-----------------|
------------16------16--15--16--|------------------------|-----------------|
--------------------------------|------------------------|-----------------|
--------------------------------|------------------------|-----------------|

------------------|------------------|------------x----x--|
------------------|------------------|------------x----x--|
------------------|------------------|------------x----x--|
------------------|------------------|------------x----x--|
------------------|------------------|------------x----x--|
------------------|------------------|------------x----x--|


                              octaver effect on
--x--x--x--x--x--x--------|------------------------------|
--x--x--x--x--x--x--------|--------10--10--------10--10--|
--x--x--x--x--x--x--------|------------------------------|
--x--x--x--x--x--x--7--7--|------------------------------|
--x--x--x--x--x--x--7--7--|--9--9----------9--9----------|
--x--x--x--x--x--x--5--5--|------------------------------|

---------------------------|--x--x--x--x--x--x--x--x--|
--------9--9--------9/-10--|--x--x--x--x--x--x--x--x--|
---------------------------|--x--x--x--x--x--x--x--x--|
---------------------------|--x--x--x--x--x--x--x--x--|
--9--9--------9--9---------|--x--x--x--x--x--x--x--x--|
---------------------------|--x--x--x--x--x--x--x--x--|


                             octaver off
--x--x--x--x--x--x--------|---------------------|--5--5--5--5--5-----------|
--x--x--x--x--x--x--------|---------------------|--------------------------|
--x--x--x--x--x--x--------|---------------------|--------------------------|
--x--x--x--x--x--x--------|------------5--7--7--|-----------------5--7--7--|
--x--x--x--x--x--x--------|------------5--7--7--|-----------------5--7--7--|
--x--x--x--x--x--x--5--5--|------------3--5--5--|-----------------3--5--5--|

--------------------------|--17--17--17--17--17--17------|
--5--5--5--5--5-----------|------------------------------|
--------------------------|--14--14--14--14--14--14------|
-----------------5--7--7--|------------------------------|
-----------------5--7--7--|------------------------------|
-----------------3--5--5--|------------------------------|


--------------------------|--------------------------|---------------------|
--------------------------|--------------------------|---------------------|
--7--7--7--7--7--7--7--7--|--7--7--7--7--7--7--7--7--|--9----9----9/-11--9-|
--7--7--7--7--7--7--7--7--|--7--7--7--7--7--7--7--7--|---------------------|
--5--5--5--5--5--5--5--5--|--x--x--x--x--x--x--x--x--|--7----7----7/-9---7-|
--------------------------|--7--7--7--7--7--7--7--7--|---------------------|

------------------------|------------------------|------------------------|
------------------------|------------------------|------------------------|
--9----9----9/-11--9----|--9----9----9/-11--9----|--9----9----9/-11--9----|
------------------------|------------------------|------------------------|
--7----7----7/-9---7----|--7----7----7/-9---7----|--7----7----7/-9---7----|
------------------------|------------------------|------------------------|

----------------------|----------------------|----------------------|
----------------------|----------------------|----------------------|
----------------------|----------------------|----------------------|
--7--7------7--7------|--7--7------7--7------|--5--5------3--3------|
--7--7------7--7------|--7--7------7--7------|--5--5------3--3------|
--5--5------5--5------|--5--5------5--5------|--3--3------1--1------|

-------------------|------------------|-----------------------|
-------------------|------------------|-----------------------|
-------------------|------------------|-----------------------|
--2----------------|------------------|-----------------------|
--2----------------|------------------|------------3----------|
--0----------------|------------------|--2------2-----2--5~---|

-----------------------|-----------------------|-----------------------|
-----------------------|-----------------------|-----------------------|
-----------------------|-----------------------|-----------------------|
-----------------------|-----------------------|-----------------------|
------------3----------|------------3----------|------------3----------|
----2----2-----2--5~---|--2------2-----2--5~---|----2----2-----2--5~---|


  wah..............................................................
-----------------------|-----------------------|-----------------------|
-----------------------|-----------------------|-----------------------|
------------5-----2~---|------------5-----2~---|------------5-----2/---|
--4------4-----4-------|----4----4-----4-------|--4------4-----4-------|
-----------------------|-----------------------|-----------------------|
-----------------------|-----------------------|-----------------------|


wah........................
----------------------------|------|------|------|------|-----------5--------|
----------------------------|------|------|------|------|--------2-----------|
--------------17------14~---|------|------|------|------|--------------------|
----16----16------16--------|------|------|------|------|--------------------|
----------------------------|------|------|------|------|--------------------|
----------------------------|------|------|------|------|--------------------|


------------------|-----------5--------|------------------|-----------5--------|
------------------|--------2-----------|------------------|--------2-----------|
------------------|--------------------|------------------|--------------------|
------------------|--------------------|------------------|--------------------|
------------------|--------------------|------------------|--------------------|
------------------|--------------------|------------------|--------------------|

--4-----------------|-------------------|-------------------|
-----------5--------|--2----------------|----------2/-------|
--------------------|-------------------|-------------------|
--------------------|-------------------|-------------------|
--------------------|-------------------|-------------------|
--------------------|-------------------|-------------------|

------------------17--17--17--17--|--16--16--16--16--16--16--16--16--|
--14--14--14--14--14--14--14--14--|--14--14--14--14--17--17--17--17--|
----------------------------------|----------------------------------|
----------------------------------|----------------------------------|
----------------------------------|----------------------------------|
----------------------------------|----------------------------------|


--14--14--14--14--14--14--14--14--|--14--14--14--14--14--14--14--14--|
--14--14--14--14--14--14--14--14--|--14--14--14--14--14--14--14--14--|
----------------------------------|----------------------------------|
----------------------------------|----------------------------------|
----------------------------------|----------------------------------|
----------------------------------|----------------------------------|

--14--14--14------------|------------------|------------------------|
--15--15--15------------|------------------|------------------------|
--14--14--14------------|------------------|--9----9----9/-11--9----|
------------------------|------------------|------------------------|
------------------------|------------------|--7----7----7/-9---7----|
------------------------|------------------|------------------------|

------------------------|------------------------|------------------------|
------------------------|------------------------|------------------------|
--9----9----9/-11--9----|--9----9----9/-11--9----|--9----9----9/-11--9----|
------------------------|------------------------|------------------------|
--7----7----7/-9---7----|--7----7----7/-9---7----|--7----7----7/-9---7----|
------------------------|------------------------|------------------------|

----------------------|----------------------|----------------------|
----------------------|----------------------|----------------------|
----------------------|----------------------|----------------------|
--7--7------7--7------|--7--7------7--7------|--5--5------3--3------|
--7--7------7--7------|--7--7------7--7------|--5--5------3--3------|
--5--5------5--5------|--5--5------5--5------|--3--3------1--1------|

--------------------------|--------------------------|------------------------|
--------------------------|--------------------------|------------------------|
--------------------------|--------------------------|-------------5-5--5-----|
--2--2--2--2--2--2--2--2--|--2--2--2--2--2--2--2--2--|--7----7-----5-5--5-----|
--2--2--2--2--2--2--2--2--|--2--2--2--2--2--2--2--2--|--7----7-----3-3--3-----|
--0--0--0--0--0--0--0--0--|--0--0--0--0--0--0--0--0--|--5----5-------------0--|

------------------------|------------------------|-----------------------|
------------------------|------------------------|-----------------------|
------------------------|-------------5-5--5-----|--------------7--7--9--|
--3----3-----5-5--5--6--|--7----7-----5-5--5-----|--3----3---------------|
--3----3-----5-5--5--6--|--7----7-----3-3--3-----|--3----3------5--5--7--|
--1----1-----3-3--3--4--|--5----5-------------0--|--1----1---------------|


------------------------|-----------------------|--------------------------|
------------------------|-----------------------|--------------------------|
-------------5-5--5-----|-----------------------|-----------------------1--|
--7----7-----5-5--5-----|--3----3-----5-5--5----|--2--2--2--2--2--2--2--2--|
--7----7-----3-3--3-----|--3----3-----5-5--5----|--2--2--2--2--2--2--2--2--|
--5----5-------------0--|--1----1-----3-3--3----|--0--0--0--0--0--0--0--0--|


-----------------0--0--0--|--------------------------||
--0--0--0--0--0--0--0--0--|--------------------------||
--1--1--1--1--1--1--1--1--|--------5--7--7b-7b-7--5--||
--2--2--2--2--2--2--2--2--|--7--7--------------------||
--2--2--2--2--2--2--2--2--|--------------------------||
--0--0--0--0--0--0--0--0--|--------------------------||


Rhythm Guitar (Shawn)

[ Tab from: http://www.guitartabs.cc/tabs/m/matches/audio_blood_tab_ver_3.html ]
E||--------------------------|--------------------------|
B||--------------------------|--------------------------|
G||--7--7--7--7--7--7--7--7--|--7--7--7--7--7--7--7--7--|
D||--------------------------|--------------------------|
A||--------------------------|--------------------------|
E||--------------------------|--------------------------|

--------------------------|--------------------------|----------------------|
--------------------------|--------------------------|----------------------|
--7--7--7--7--7--7--7--7--|--6--6--6--6--6--6--6--6--|----------------------|
--------------------------|--------------------------|--4--4------4--4------|
--------------------------|--------------------------|--4--4------4--4------|
--------------------------|--------------------------|--2--2------2--2------|


                                                                     `f
----------------------|----------------------|----------------------|
----------------------|----------------------|----------------------|
----------------------|--7--7------7--7------|----------------------|
--4--4------4--4------|--7--7------7--7------|--7--7------7--7------|
--4--4------4--4------|--5--5------5--5------|--7--7------7--7------|
--2--2------2--2------|----------------------|--5--5------5--5------|

----------------------|----------------------|----------------------|
----------------------|----------------------|----------------------|
----------------------|----------------------|--7--7------7--7------|
--4--4------4--4------|--4--4------4--4------|--7--7------7--7------|
--4--4------4--4------|--4--4------4--4------|--5--5------5--5------|
--2--2------2--2------|--2--2------2--2------|----------------------|

----------------------|------|------|------|--------------------|
----------------------|------|------|------|--------------------|
----------------------|------|------|------|--------------------|
--7--7------7--7------|------|------|------|--------------7--7--|
--7--7------7--7------|------|------|------|--------------7--7--|
--5--5------5--5------|------|------|------|--------------5--5--|

--------x--x--------x--x--|--------x--x--------x--x--|------|
--------x--x--------x--x--|--------x--x--------x--x--|------|
--------x--x--------x--x--|--------x--x--------x--x--|------|
--4--4--x--x--4--4--x--x--|--4--4--x--x--4--4--x--x--|------|
--4--4--x--x--4--4--x--x--|--4--4--x--x--4--4--x--x--|------|
--2--2--x--x--2--2--x--x--|--2--2--x--x--2--2--x--x--|------|

--------------------|--5--5--5--5--5-----------|--5--5--5--5--5-----------|
--------------------|--------------------------|--------------------------|
--------------------|--------------------------|--------------------------|
--------------7--7--|-----------------5--7--7--|-----------------5--7--7--|
--------------7--7--|-----------------5--7--7--|-----------------5--7--7--|
--------------5--5--|-----------------3--5--5--|-----------------3--5--5--|

--5--5--5--5--5-----------|--5--5--5--5--5--5------|----------------------|
--------------------------|------------------------|----------------------|
--------------------------|------------------------|--7----7----7----7----|
-----------------5--7--7--|------------------------|--7----7----7----7----|
-----------------5--7--7--|------------------------|--5----5----5----5----|
-----------------3--5--5--|------------------------|----------------------|

----------------------|--------5--5--------5--5--|--------5--5--------5--5--|
----------------------|--------------------------|--------------------------|
--7----7----7----7----|--------------------------|--------------------------|
--7----7----7----7----|--7--7--------7--7--------|--7--7--------7--7--------|
--x----x----x----x----|--7--7--------7--7--------|--7--7--------7--7--------|
--7----7----7----7----|--5--5--------5--5--------|--5--5--------5--5--------|

----------------------|----------------------|--------5--5--------5--5--|
----------------------|----------------------|--------------------------|
--7----7----7----7----|--7----7----7----7----|--------------------------|
--7----7----7----7----|--7----7----7----7----|--7--7--------7--7--------|
--5----5----5----5----|--x----x----x----x----|--7--7--------7--7--------|
----------------------|--7----7----7----7----|--5--5--------5--5--------|


--------5--5--------5--5--|----------------------|--0----------------|
--------------------------|----------------------|--0----------------|
--------------------------|----------------------|--1----------------|
--7--7--------7--7--------|--5--5------3--3------|--2----------------|
--7--7--------7--7--------|--5--5------3--3------|--2----------------|
--5--5--------5--5--------|--3--3------1--1------|--0----------------|

------------------|--------x--x--------x--x--|--------x--x--------x--x--|
------------------|--------x--x--------x--x--|--------x--x--------x--x--|
------------------|--------x--x--------x--x--|--------x--x--------x--x--|
------------------|--4--4--x--x--4--4--x--x--|--4--4--x--x--4--4--x--x--|
------------------|--4--4--x--x--4--4--x--x--|--4--4--x--x--4--4--x--x--|
------------------|--2--2--x--x--2--2--x--x--|--2--2--x--x--2--2--x--x--|

--------x--x--------x--x--|--------x--x--------x--x--|----------------------|
--------x--x--------x--x--|--------x--x--------x--x--|----------------------|
--7--7--x--x--7--7--x--x--|--------x--x--------x--x--|----------------------|
--7--7--x--x--7--7--x--x--|--7--7--x--x--7--7--x--x--|--4--4--------4-------|
--5--5--x--x--5--5--x--x--|--7--7--x--x--7--7--x--x--|--4--4--------4-------|
--------x--x--------x--x--|--5--5--x--x--5--5--x--x--|--2--2--------2----0--|

--------------------|--------------x----x--|--x--x--x--x--x--x--------|
--------------------|--------------x----x--|--x--x--x--x--x--x--------|
--------------------|--7--7--------x----x--|--x--x--x--x--x--x--------|
--4--4--------------|--7--7--------x----x--|--x--x--x--x--x--x--7--7--|
--4--4--------------|--5--5--------x----x--|--x--x--x--x--x--x--7--7--|
--2--2--------------|--------------x----x--|--x--x--x--x--x--x--5--5--|

----------------------|----------------------|--------------------|
----------------------|----------------------|--------------------|
----------------------|----------------------|--7--7--------------|
--4--4------4--4------|--4--4------4--4------|--7--7--------------|
--4--4------4--4------|--4--4------4--4------|--5--5--------------|
--2--2------2--2------|--2--2------2--2------|--------------------|

--x--x--x--x--x--x--------|--5--5--5--5--5-----------|
--x--x--x--x--x--x--------|--------------------------|
--x--x--x--x--x--x--------|--------------------------|
--x--x--x--x--x--x--7--7--|-----------------5--7--7--|
--x--x--x--x--x--x--7--7--|-----------------5--7--7--|
--x--x--x--x--x--x--5--5--|-----------------3--5--5--|

--5--5--5--5--5-----------|--5--5--5--5--5-----------|--5--5--5--5--5--5------|
--------------------------|--------------------------|------------------------|
--------------------------|--------------------------|------------------------|
-----------------5--7--7--|-----------------5--7--7--|------------------------|
-----------------5--7--7--|-----------------5--7--7--|------------------------|
-----------------3--5--5--|-----------------3--5--5--|------------------------|

----------------------|----------------------|--------5--5--------5--5--|
----------------------|----------------------|--------------------------|
--7----7----7----7----|--7----7----7----7----|--------------------------|
--7----7----7----7----|--7----7----7----7----|--7--7--------7--7--------|
--5----5----5----5----|--x----x----x----x----|--7--7--------7--7--------|
----------------------|--7----7----7----7----|--5--5--------5--5--------|

--------5--5--------5--5--|----------------------|----------------------|
--------------------------|----------------------|----------------------|
--------------------------|--7----7----7----7----|--7----7----7----7----|
--7--7--------7--7--------|--7----7----7----7----|--7----7----7----7----|
--7--7--------7--7--------|--5----5----5----5----|--x----x----x----x----|
--5--5--------5--5--------|----------------------|--7----7----7----7----|

--------5--5--------5--5--|--------5--5--------5--5--|----------------------|
--------------------------|--------------------------|----------------------|
--------------------------|--------------------------|----------------------|
--7--7--------7--7--------|--7--7--------7--7--------|--5--5------3--3------|
--7--7--------7--7--------|--7--7--------7--7--------|--5--5------3--3------|
--5--5--------5--5--------|--5--5--------5--5--------|--3--3------1--1------|

--0----------------|------------------|-----------------------|
--0----------------|------------------|------------------5----|
--1----------------|------------------|------------5-----5----|
--2----------------|------------------|--4------4--5--4--5----|
--2----------------|------------------|--4------4--3--4-------|
--0----------------|------------------|--2------2-----2--5----|

-----------------------|-----------------------|-----------------------|
------------------5----|------------------5----|------------------5----|
------------5-----5----|------------5-----5----|------------5-----5----|
----4----4--5--4--5----|--4------4--5--4--5----|----4----4--5--4--5----|
----4----4--3--4-------|--4------4--3--4-------|----4----4--3--4-------|
----2----2-----2--5----|--2------2-----2--5----|----2----2-----2--5----|

-----------------------|-----------------------|-----------------------|
------------------5----|------------------5----|------------------5----|
------------5-----5----|------------5-----5----|------------5-----5----|
--4------4--5--4--5----|----4----4--5--4--5----|--4------4--5--4--5----|
--4------4--3--4-------|----4----4--3--4-------|--4------4--3--4-------|
--2------2-----2--5----|----2----2-----2--5----|--2------2-----2--5----|

-----------------------|----------------------------------|
------------------5----|----------------------------------|
------------5-----5----|--11--11--11--11--11--11--11--11--|
----4----4--5--4--5----|--11--11--11--11--11--11--11--11--|
----4----4--3--4-------|--9---9---9---9---9---9---9---9---|
----2----2-----2--5----|----------------------------------|

----------------------------------|----------------------------------|
----------------------------------|----------------------------------|
--11--11--11--11--11--11--11--11--|--11--11--11--11--11--11--11--11--|
--11--11--11--11--11--11--11--11--|--11--11--11--11--11--11--11--11--|
--9---9---9---9---9---9---9---9---|----------------------------------|
----------------------------------|--10--10--10--10--10--10--10--10--|

----------------------------------|----------------------------------|
----------------------------------|----------------------------------|
--11--11--11--11--11--11--11--11--|--11--11--11--11--11--11--11--11--|
--11--11--11--11--11--11--11--11--|--11--11--11--11--11--11--11--11--|
----------------------------------|--9---9---9---9---9---9---9---9---|
--10--10--10--10--10--10--10--10--|----------------------------------|


----------------------------------|----------------------------------|
----------------------------------|----------------------------------|
--11--11--11--11--11--11--11--11--|--11--11--11--11--11--11--11--11--|
--11--11--11--11--11--11--11--11--|--11--11--11--11--11--11--11--11--|
--9---9---9---9---9---9---9---9---|----------------------------------|
----------------------------------|--10--10--10--10--10--10--10--10--|

----------------------------------|----------------------------------|
----------------------------------|----------------------------------|
--11--11--11--11--11--11--11--11--|--11--11--11--11--11--11--11--11--|
--11--11--11--11--11--11--11--11--|--11--11--11--11--11--11--11--11--|
----------------------------------|--9---9---9---9---9---9---9---9---|
--10--10--10--10--10--10--10--10--|----------------------------------|

----------------------------------|----------------------------------|
----------------------------------|----------------------------------|
--11--11--11--11--11--11--11--11--|--11--11--11--11--11--11--11--11--|
--11--11--11--11--11--11--11--11--|--11--11--11--11--11--11--11--11--|
--9---9---9---9---9---9---9---9---|----------------------------------|
----------------------------------|--10--10--10--10--10--10--10--10--|

----------------------------------|----------------------------------|
----------------------------------|----------------------------------|
--11--11--11--11--11--11--11--11--|--11--11--11--11--11--11--11--11--|
--11--11--11--11--11--11--11--11--|--11--11--11--11--11--11--11--11--|
----------------------------------|--9---9---9---9---9---9---9---9---|
--10--10--10--10--10--10--10--10--|----------------------------------|

----------------------------------|----------------------------------|
----------------------------------|----------------------------------|
--11--11--11--11--11--11--11--11--|--11--11--11--11--11--11--11--11--|
--11--11--11--11--11--11--11--11--|--11--11--11--11--11--11--11--11--|
--9---9---9---9---9---9---9---9---|----------------------------------|
----------------------------------|--10--10--10--10--10--10--10--10--|


----------------------------------|---------------------|------------------|
----------------------------------|---------------------|------------------|
--11--11--11--11--11--11--11--11--|--7--7--7------------|------------------|
--11--11--11--11--11--11--11--11--|--7--7--7------------|------------------|
----------------------------------|--5--5--5------------|------------------|
--10--10--10--10--10--10--10--10--|---------------------|------------------|



--------5--5--------5--5--|--------5--5--------5--5--|----------------------|
--------------------------|--------------------------|----------------------|
--------------------------|--------------------------|--7----7----7----7----|
--7--7--------7--7--------|--7--7--------7--7--------|--7----7----7----7----|
--7--7--------7--7--------|--7--7--------7--7--------|--5----5----5----5----|
--5--5--------5--5--------|--5--5--------5--5--------|----------------------|

----------------------|--------5--5--------5--5--|--------5--5--------5--5--|
----------------------|--------------------------|--------------------------|
--7----7----7----7----|--------------------------|--------------------------|
--7----7----7----7----|--7--7--------7--7--------|--7--7--------7--7--------|
--x----x----x----x----|--7--7--------7--7--------|--7--7--------7--7--------|
--7----7----7----7----|--5--5--------5--5--------|--5--5--------5--5--------|

----------------------|--0--0--0--0--0--0--0--0--|--0--0--0--0--0--0--0--0--|
----------------------|--0--0--0--0--0--0--0--0--|--0--0--0--0--0--0--0--0--|
----------------------|--1--1--1--1--1--1--1--1--|--1--1--1--1--1--1--1--1--|
--5--5------3--3------|--2--2--2--2--2--2--2--2--|--2--2--2--2--2--2--2--2--|
--5--5------3--3------|--2--2--2--2--2--2--2--2--|--2--2--2--2--2--2--2--2--|
--3--3------1--1------|--0--0--0--0--0--0--0--0--|--0--0--0--0--0--0--0--0--|

------------------------|------------------------|------------------------|
------------------------|------------------------|------------------------|
-------------5-5--5-----|------------------------|-------------5-5--5-----|
--7----7-----5-5--5-----|--3----3-----5-5--5--6--|--7----7-----5-5--5-----|
--7----7-----3-3--3-----|--3----3-----5-5--5--6--|--7----7-----3-3--3-----|
--5----5-------------0--|--1----1-----3-3--3--4--|--5----5-------------0--|

-----------------------|------------------------|-----------------------|
-----------------------|------------------------|-----------------------|
--------------7--7--9--|-------------5-5--5-----|-----------------------|
--3----3---------------|--7----7-----5-5--5-----|--3----3-----5-5--5----|
--3----3------5--5--7--|--7----7-----3-3--3-----|--3----3-----5-5--5----|
--1----1---------------|--5----5-------------0--|--1----1-----3-3--3----|

--------------------------|-----------------0--0--0--|
--------------------------|--0--0--0--0--0--0--0--0--|
-----------------------1--|--1--1--1--1--1--1--1--1--|
--2--2--2--2--2--2--2--2--|--2--2--2--2--2--2--2--2--|
--2--2--2--2--2--2--2--2--|--2--2--2--2--2--2--2--2--|
--0--0--0--0--0--0--0--0--|--0--0--0--0--0--0--0--0--|

---------------------------||
---------------------------||
------------7--8--8--7--5--||
--7--7--10--7--8--8--7--5--||
--7--7--10--5--6--6--5--3--||
--5--5--8------------------||
Comments