Matches - Audio Blood Chords & Tabs

 

Audio Blood Chords & Tabs

Matches Chords & Tabs

Version: 2 Type: Tab 0 ratings
1 star 2 stars 3 stars 4 stars 5 stars
comments

Audio Blood Tab

Almost complete if anyone knows the ending pm it to me but other than that it should be right.




(intro)
e|-------------------------------------------------------------------|
B|-0-0-0-0-0-0-0-0-0-0-0-0-0-0-0-0-0-0-------------------------------|
G|-------------------------------------------------------------------|
D|-------------------------------------------------------------------|
A|-------------------------------------------------------------------|
E|-------------------------------------------------------------------|
-

e|-------------------------------------------------------------------|
B|-------------------------------------------------------------------|
G|----------------------------------7-7-x-x-7-7-x-x------------------|
D|-4-4-x-x-4-4-x-x-4-4-x-x-4-4-x-x--7-7-x-x-7-7-x-x--7-7-x-x-7-7-x-x-|X2
A|-4-4-x-x-4-4-x-x-4-4-x-x-4-4-x-x--5-5-x-x-5-5-x-x--7-7-x-x-7-7-x-x-|
E|-2-2-x-x-2-2-x-x-2-2-x-x-2-2-x-x-------------------5-5-x-x-5-5-x-x-|

  (chorus)
e|----------------------------------x-x-x-x-x-x-x-x------------------|
B|----------------------------------x-x-x-x-x-x-x-x------------------|
G|-----8-8-----8-8-----7-7-----7-7--x-x-x-x-x-x-x-x------------------|
D|-5-5-----5-5-----5-5-----5-5------x-x-x-x-x-x-x-x------------------|X2
A|----------------------------------x-x-x-x-x-x-x-x------------------|
E|----------------------------------x-x-x-x-x-x-x-x------------------|

   (chorus cont.)
e|-5-5-5-5-5--------5-5-5-5-5--------5-5-5-5-5--------5-5-5-5-5-5----|
B|-----------------------------------5-5-5-5-5-----------------------|
G|-------------------------------------------------------------------|
D|-----------5/-7-7-----------5/-7-7-----------5/-7-7----------------|
A|-----------5/-7-7-----------5/-7-7-----------5/-7-7----------------|
E|-----------3/-5-5-----------3/-5-5-----------3/-5-5----------------|

   (chorus cont.)
e|--------------------------------------5-5-----5-5-----5-5-----5-5--|
B|-------------------------------------------------------------------|
G|-7-7-7-7-7-7-7-7-7-7-7-7-7-7-7-7-----------------------------------|
D|-7-7-7-7-7-7-7-7-7-7-7-7-7-7-7-7--7-7-----7-7-----7-7-----7-7------|X2
A|-5-5-5-5-5-5-5-5-0-0-0-0-0-0-0-0--x-x-----x-x-----x-x-----x-x------|
E|----------------------------------5-5-----5-5-----5-5-----5-5------|
[ Tab from: http://www.guitartabs.cc/tabs/m/matches/audio_blood_tab_ver_2.html ]
                 (solo)      
e|-------------|-----------------------------------------------------|
B|-------------|-----------------------------------------------------|
G|-------------|--------14-14-------14-14-13h14h13----13-------------|
D|-7-7--5-5--3-|-----------------------------------16----16-14-16-14-|
A|-7-7--5-5--3-|-----------------------------------------------------|
E|-5-5--3-3--1-|--14-14-------14-14----------------------------------|

  (solo cont.)
e|----17-----16|
B|-14--------16|
G|-------16~---|
D|-------------|
A|-------------|
E|-------------|

(Play chorus)


e|-----------|-------------------------------------------------------|
B|-----------|-------------------------------------------------------|
G|-----------|-------------------------------------------------------|
D|-7-7-5-5-3-|-------------------------------------------------6-----|
A|-7-7-5-5-3-|-----3----------3----------3----------3------5-5---5-8-|
E|-5-5-3-3-1-|-2-2---2-5--2-2---2-5--2-2---2-5--2-2---2-5------------|

  
e|-------------------------------------------------------------------|
B|-------------------------------------------------------------------|
G|-------------------------------------------------------------------|
D|-----6----------6------------18------------------------------------|
A|-5-5---5-8--5-5---5-8--17-17----17-20------------------------------|
E|-------------------------------------------------------------------|


e|-5----5----5-4--------------------17-17-17-17-16-16-16-16-16-16-16-|
B|-2-------------5-2-2/-14-14-14-14-14-14-14-14-14-14-14-14-16-16-16-|
G|-------------------------------------------------------------------|
D|-------------------------------------------------------------------|
A|-------------------------------------------------------------------|
E|-------------------------------------------------------------------|

e|-14-14-14-14--------|
B|-14-14-14-14--------|
G|--------------------|
D|--------------7-7-7-|
A|--------------7-7-7-|
E|--------------5-5-5-|

(Play chorus)


e|-----------------------------------|------------------------------|
B|-----------------------------------|------------------------------|
G|-----------------------------------|------------5-5---------------|
D|-7-7-5-5-3--2-2-2-2-2-2-2-2-2-2-2-2|---7--7-7-7-5-5-3--3-3-3/-5-5-|X2
A|-7-7-5-5-3--2-2-2-2-2-2-2-2-2-2-2-2|---7--7-7-7-3-3-3--3-3-3/-5-5-|
E|-5-5-3-3-1--0-0-0-0-0-0-0-0-0-0-0-0|---5--5-5-5-----1--1-1-1/-3-3-|


/ = Slide
~ = Vibrato
x = Mute
Comments