Matches - Audio Blood Chords & Tabs

 

Audio Blood Chords & Tabs

Matches Chords & Tabs

Version: 1 Type: Bass Tab 0 ratings
1 star 2 stars 3 stars 4 stars 5 stars
comments

Audio Blood Bass Tab

Heeey!! Thought i tab out the Bass to this song seeing as though no one else has.
Its prett much accurate...enjoi ;)  
                                                                       
G||------|------|--------------------------|--------------------------|
D||------|------|--------------------------|--------------------------|
A||------|------|--------------------------|--------------------------|
E||------|------|--9--9--9--9--9--9--9--9--|--9--9--9--9--9--9--9--9--|
                                                      
--------------------------|--------------------------|
--4--4--------4--4--------|--4--4--------4--4--------|
--------------------------|--------------------------|
--------2--2--------2--2--|--------2--2--------2--2--|
                                                    
--7--7--------7--7--------|--------------------------|
--------------------------|--7--7--------7--7--------|
--------5--5--------5--5--|--------------------------|
--------------------------|--------5--5--------5--5--|
                                                      
--------------------------|--------------------------|
--4--4--------4--4--------|--4--4--------4--4--------|
--------------------------|--------------------------|
--------2--2--------2--2--|--------2--2--------2--2--|
                                                      
--7--7--------7--7--------|--------------------------|
--------------------------|--7--7--------7--7--------|
--------5--5--------5--5--|--------------------------|
--------------------------|--------5--5--------5--5/-|
                                                               
----------------------------|---------------------------|------|
----------------------------|---------------------------|------|
----------------------------|---------------------------|------|
--14--14/---2/-14--14/---2/-|--14--14/---2/-14--14/-----|------|
                                                                           
--------------------|--------------------------|--------------------------|
--------------------|--------4--4--------4--4--|--------4--4--------4--4--|
--------------7--7--|--------------------------|--------------------------|
--------------5--5--|--2--2--------2--2--------|--2--2--------2--2--------|
                                                                 
---------------------|--------------------|---------------------|
--x----x----x--------|--------------------|---------------------|
--x----x----x--------|--------------------|---------------------|
---------------------|--------------5--5--|------------3--5--5--|
[ Tab from: http://www.guitartabs.cc/tabs/m/matches/audio_blood_btab.html ]
--------------------|--------------------|------|-------------------------|
--------------------|--------------------|------|--7--7--7--7--7--7--7--7-|
--------------------|--------------------|------|--5--5--5--5--5--5--5--5-|
-----------3--5--5--|-----------3--5--5--|------|-------------------------|
                                                      
--------------------------|--------------------------|
--------------------------|--------7--7--------7--7--|
--------------------------|--------------------------|
--7--7--7--7--7--7--7--7--|--5--5--------5--5--------|
                                                      
--------------------------|--------------------------|
--------7--7--------7--7--|--7--7--7--7--7--7--7--7--|
--------------------------|--5--5--5--5--5--5--5--5--|
--5--5--------5--5--------|--------------------------|
                                                      
--------------------------|--------------------------|
--------------------------|--------7--7--------7--7--|
--------------------------|--------------------------|
--7--7--7--7--7--7--7--7--|--5--5--------5--5--------|
                                                                            
--------------------------|----------------------|-------------------|------|
--------7--7--------7--7--|----------------------|--9----------------|------|
--------------------------|----------------------|--7----------------|------|
--5--5--------5--5--------|--3--3------1--1------|--0----------------|------|
                                                      
--------------------------|--------------------------|
--4--4--------4--4--------|--4--4--------4--4--------|
--------------------------|--------------------------|
--------2--2--------2--2--|--------2--2--------2--2--|
                                                     
--7--7--------7--7--------|--------------------------|
--------------------------|--7--7--------7--7--------|
--------5--5--------5--5--|--------------------------|
--------------------------|--------5--5--------5--5--|
                                                      
--------------------------|--------------------------|
--4--4--------4--4--------|--4--4--------4--4--------|
--------------------------|--------------------------|
--------2--2--------2--2--|--------2--2--------2--2--|
                                                     
--7--7--------7--7--------|--------------------------|
--------------------------|--7--7--------7--7--------|
--------5--5--------5--5--|--------------------7--7--|
--------------------------|--------5--5--------5--5--|
                                                      
--------------------------|--------------------------|
--------4--4--------4--4--|--------4--4--------4--4--|
--------------------------|--------------------------|
--2--2--------2--2--------|--2--2--------2--2--------|
                                                                            
--------7--7--------7--7--|--------------------------|---------------------|
--------------------------|--------7--7--------7--7--|---------------------|
--5--5--------5--5--------|--------------------7--7--|---------------------|
--------------------------|--5--5--------5--5--5--5--|------------3--5--5--|
                                                                          
--------------------|--------------------|-----|-------------------------|
--------------------|--------------------|-----|--7--7--7--7--7--7--7--7-|
--------------------|--------------------|-----|--5--5--5--5--5--5--5--5-|
-----------3--5--5--|-----------3--5--5--|-----|-------------------------|
                                                     
--------------------------|--------------------------|
--------------------------|--------7--7--------7--7--|
--------------------------|--------------------------|
--7--7--7--7--7--7--7--7--|--5--5--------5--5--------|
                                                      
--------------------------|--------------------------|
--------7--7--------7--7--|--7--7--7--7--7--7--7--7--|
--------------------------|--5--5--5--5--5--5--5--5--|
--5--5--------5--5--------|--------------------------|
                                                     
--------------------------|--------------------------|
--------------------------|--------7--7--------7--7--|
--------------------------|--------------------------|
--7--7--7--7--7--7--7--7--|--5--5--------5--5--------|
                                                                             
--------------------------|----------------------|-------------------|------|
--------7--7--------7--7--|----------------------|--9----------------|------|
--------------------------|----------------------|--7----------------|------|
--5--5--------5--5--------|--3--3------1--1------|--0----------------|------|
                                                                        
-----------------------|-----------------------|-----------------------|
-----------------------|-----------------------|-----------------------|
------------3-----0----|------------3-----0----|------------3-----0----|
--2------2-----2-------|----2----2-----2-------|--2------2-----2-------|
                                                                        
-----------------------|-----------------------|-----------------------|
-----------------------|-----------------------|-----------------------|
------------3-----0----|------------3-----0----|------------3-----0----|
----2----2-----2-------|--2------2-----2--0----|----2----2-----2--0----|
                                                              
-----------------------|------------------0----|------|------|
------------------0----|------------------0----|------|------|
------------3-----0----|------------3-----0----|------|------|
--2------2-----2--0----|----2----2-----2--0----|------|------|
                                                                            
---------------|--7----------------|----------------|---------------|
---------------|----------7--------|----------------|---------------|
---------------|---------------7---|----------------|---------------|
---------------|-------------------|--2-------------|---------------|
                                                            
------|------|----------------------|----------------------|
------|------|----------------------|----------------------|
------|------|----------------------|----------------------|
------|------|--2----2----2----2----|--2----2----2----2----|
                                                                     
----------------------|----------------------|----------------------|
----------------------|----------------------|----------------------|
--5----5----5----5----|--5----5----5----5----|--4----4----4----4----|
----------------------|----------------------|--2----2----2----2----|
                                                      
--------------------------|--------------------------|
--------------------------|--7--7--7--7--7--7--7--7--|
--4--4--4--4--4--4--4--4--|--5--5--5--5--5--5--5--5--|
--2--2--2--2--2--2--2--2--|--------------------------|
                                                        
--------------------------|---------------------|------|
--7--7--7--7--7--7--7--7--|--7--7--7------------|------|
--5--5--5--5--5--5--5--5--|--5--5--5------------|------|
--------------------------|---------------------|------|
                                                      
--------------------------|--------------------------|
--------7--7--------7--7--|--------7--7--------7--7--|
--------------------------|--------------------------|
--5--5--------5--5--------|--5--5--------5--5--------|
                                                      
--------------------------|--------------------------|
--7--7--7--7--7--7--7--7--|--------------------------|
--5--5--5--5--5--5--5--5--|--------------------------|
--------------------------|--7--7--7--7--7--7--7--7--|
                                                                             
--------------------------|--------------------------|----------------------|
--------7--7--------7--7--|--------7--7--------7--7--|----------------------|
--------------------------|--------------------------|----------------------|
--5--5--------5--5--------|--5--5--------5--5--------|--3--3------1--1------|
                                                                            
--------------------------|--------------------------|----------------------|
--9--9--9--9--9--9--9--9--|--9--9--9--9--9--9--9--9--|----------------------|
--7--7--7--7--7--7--7--7--|--7--7--7--7--7--7--7--7--|-------------3-3--3--3|
--0--0--0--0--0--0--0--0--|--0--0--0--0--0--0--0--0--|--5----5--------------|
                                                                          
------------------------|------------------------|-----------------------|
------------------------|------------------------|-----------------------|
------------------------|-------------3-3--3--3--|--------------5--5--7--|
--1----1-----3-3--3--4--|--5----5----------------|--1----1---------------|
                                                                            
------------------------|-----------------------|--------------------------|
------------------------|-----------------------|--------------------------|
-------------3-3--3--3--|-----------------------|--7--7--7--7--7--7--7--7--|
--5----5----------------|--1----1-----3-3--3----|--0--0--0--0--0--0--0--0--|
                                                           
--------------9--9--9--9--|--------------------------|----||
--9--9--9--9--9--9--9--9--|-----------------------5--|----||
--7--7--7--7--7--7--7--7--|--------3--5--6--6--5--3--|----||
--0--0--0--0--0--0--0--0--|--5--5--------------------|----||

Thank You.   <3 Anna <3     xD
Comments