Matches - A Girl I Know Chords & Tabs

 

A Girl I Know Chords & Tabs

Matches Chords & Tabs

Version: 1 Type: Tab 0 ratings
1 star 2 stars 3 stars 4 stars 5 stars
comments

A Girl I Know Tab

Song:		A girl i know
Band:		The Matches (www.thematches.com)
Album:		3-Way Issue 2 (The Matches, Near Miss, Reeve Oliver)
Signed by:	Epitaph
Tabbed by:	Macca

^ pull off
~ let ring

   intro - (if there's two guitars then the closed strings would 
           be strumed three time instead of two on the second guitar,
           but there isn't time with one guitar because they 
           overlap)                                                      

E||---------------x-x--------------x-x-|
B||---------------x-x--------------x-x-|
G||---------------x-x--------------x-x-|
D||--777/6~/555/4-x-x-777/6~/555/4-x-x-|
A||--777/6~/555/4-x-x-777/6~/555/4-x-x-|
E||--555/4~/333/2-x-x-555/4~/333/2-x-x-|

    
    verse one
    -----------------------------------------------------------
    -----------------------------------------------------------
    -----------------------------------------------------------
    -777/6~/555/4----777/6~/555/4------------------------------
    -777/6~/555/4----777/6~/555/4------------------------------
    -555/4~/333/2----555/4~/333/2------------------------------
    

    
    -----------------------------------------------------------
    -----------------------------------------------------------
    -----------------------------------------------------------
    -----------------777/6~/555/4------------------------------
    -----------------777/6~/555/4------------------------------
    -----------------555/4~/333/2------------------------------
    

    
    -------------------------------|
    -------------------------------|
    -------------------------------|
    -----------------777/6~/555/4--|
    -----------------777/6~/555/4--|
    -----------------555/4~/333/2--|
    


    chorus pt.1
    -----------------------------------------------------------------|
    -----------------------------------------------------------------|
    ------7~------6~------7~------6~------7~------6~------7~------6~-|
    ------7~------6~------7~------6~------7~------6~------7~------6~-|
    ------5~------4~------5~------4~------5~------4~------5~------4~-|
    -2~^0----2~^0----2~^0----2~^0----2~^0----2~^0----2~^0----2~^0----|
   

    
    chorus pt.2
    -----------------------------------------------------|
    -----------------------------------------------------|
    -6-----7--7777777--6-----7--7777777-7-7-777----------|
    -6--6--7--7777777--6--6--7--7777777-7-7-777-3-3-3333-|
    -4--6--5--5555555--4--6--5--5555555-5-5-555-3-3-3333-|
    ----4-----------------4---------------------1-1-1111-|


    chorus pt.3 (lead)
    --------------------------------------------------------------|
    --------------------------------------------------------------|
    --------------------------------------------------------------|
    -777/6~/555/4----777/6~/555/4----777/6~/555/4----777/6~/555/4-|
    -777/6~/555/4----777/6~/555/4----777/6~/555/4----777/6~/555/4-|
    -555/4~/333/2----555/4~/333/2----555/4~/333/2----555/4~/333/2-|

        -or- 
      
    chorus pt.3 (rhythm)
    -555555555555555555555555555555555555555555555555-| (6 lots of 8)
    --------------------------------------------------|
    --------------------------------------------------|
    --------------------------------------------------|
    --------------------------------------------------|
    --------------------------------------------------|

[ Tab from: http://www.guitartabs.cc/tabs/m/matches/a_girl_i_know_tab.html ]
    verse two
    -----------------------------------------------------------
    -----------------------------------------------------------
    -----------------------------------------------------------
    -----------------------------------------------------------
    -----------------------------------------------------------
    -----------------------------------------------------------
    

    
    ----------------------------------------------------------|
    ----------------------------------------------------------|
    ----------------------------------------------------------|
    -777/6~/555/4----777/6~/555/4----777/6~/555/4------3~~~~~-|
    -777/6~/555/4----777/6~/555/4----777/6~/555/4------3~~~~~-|
    -555/4~/333/2----555/4~/333/2----555/4~/333/2------1~~~~~-|
    


    chorus pt.2 extended
    -----------------------------------------------------------------------|
    -----------------------------------------------------------------------|
    -6-----7--7777777--6-----7--7777777-7-7-777----------------------------|
    -6--6--7--7777777--6--6--7--7777777-7-7-777-3-333333333333333333333333-|  
    -4--6--5--5555555--4--6--5--5555555-5-5-555-3-333333333333333333333333-| (3 lots of 8)
    ----4-----------------4---------------------1-111111111111111111111111-|



    bridge
    -------------------------------------------------------------
    -------------------------------------------------------------
    -------------------------------------------------------------
    -------------------------------------------------------------
    -------------------------------------------------------------
    -------------------------------------------------------------



    ------------------------------------------------------------|
    ------------------------------------------------------------|
    ------------------------------------------------------------|
    --------------------------------7~~~~~~~~~~~~~~~~~~~~~~~~---|
    --------------------------------7~~~~~~~~~~~~~~~~~~~~~~~~---|
    -5~~~~~~~~~~~~~~~~~~~~~~~-------5~~~~~~~~~~~~~~~~~~~~~~~~---|



    outro
    --------------------------------------------------------------------
    --------------------------------------------------------------------
    --------------------------------------------------------------------
    -7-x-6-x-5-x-4-x-3333-7-x-6-x-5-x-4-x-3333-7-x-6-x-5-x-4-x-33333~~~-
    -7-x-6-x-5-x-4-x-3333-7-x-6-x-5-x-4-x-3333-7-x-6-x-5-x-4-x-33333~~~-
    -5-x-4-x-3-x-2-x-1111-5-x-4-x-3-x-2-x-1111-5-x-4-x-3-x-2-x-11111~~~-




    ------------------------------------------------------------------|
    ------------------------------------------------------------------|
    ------------------------------------------------------------------|
    -777/6~/555/4----777/6~/555/4----777/6~/555/4----777/6~/555/3~~~~-|
    -777/6~/555/4----777/6~/555/4----777/6~/555/4----777/6~/555/3~~~~-|
    -555/4~/333/2----555/4~/333/2----555/4~/333/2----555/4~/333/1~~~~-|
    

   order:

   intro
   verse one
   chorus pt.1
   chorus pt.2
       chorus pt.3 (lead)
       --or--
       chorus pt.3 (rhythm)
   verse two
       chorus pt.3 (lead)
       --or--
       chorus pt.3 (rhythm) 
   chorus pt.1
   chorus pt.2 extended
   bridge
   chorus pt.1
   chorus pt.2 extended
   outro

   I'm not 100% certain this is right, but it sounds pretty close to me
    
   e-mail any corrections to macca_chainmefree@hotmail.com
Comments