Matchbox Twenty - Unwell Chords & Tabs

 

Matchbox Twenty Chords & Tabs

Version: 1 Type: Chords 0 ratings
1 star 2 stars 3 stars 4 stars 5 stars
comments

Unwell Chords

   
Matchbox 20 - Unwell

Notes:
-Capo 2nd Fret
-Tab isn't according to capo
-Chords are the only thing according to capo
-listening example: http://www.youtube.com/watch?v=WziA88-n02k
- /=slide or hammer-on
-Let every strum ring

Chord   -  E A D G B E
G       -  3 2 0 0 3 3
Cadd9   -  X 3 2 0 3 3
Em7     -  0 2 2 0 3 3
Bm7     -  X 2 4 2 3 2
D       -  X X 0 2 3 2

  G                                Cadd9  Em7                             D
e|-------------------------------|------|-------------------------------|-------|
B|-----10-12-10---------10-12-10-|------|-----10-12-10---------10-12-9--|-------|
G|9/11----------9-9/11-----------|------|9/11----------9-7/9------------|-------|
D|-------------------------------|------|-------------------------------|-------|
A|-------------------------------|------|-------------------------------|-------|
E|-------------------------------|------|-------------------------------|-------|
  G                              Cadd9                  
e|------------------------------|--------------------------|
B|-----10-12-10---------10-12-10|--12-10---------10-12-10--|
G|9/11----------9-9/11----------|--------9-9/11------------|
D|------------------------------|--------------------------|
A|------------------------------|--------------------------|
E|------------------------------|--------------------------|
  Em7                             D
e|-------------------------------|---------------------|
B|------10-12-10---------10-12-9-|---------------------|
G|9/11-----------9-7/9-----------|-9----9/11--11-11/13-|
D|-------------------------------|---9-----------------|
A|-------------------------------|---------------------|
E|-------------------------------|---------------------|


Verse 1:
Cadd9  D   G              Em7
All   day staring at the ceiling making
Cadd9        D             Em7
friends with shadows on my wall
Cadd9  D         G              Em7
All    night I'm hearing voices telling me that
Cadd9                            D
I should get some sleep because tomorrow might be good for something


Pre-Chorus:
Bm7    Cadd9   G               D
Hold   on  I'm feeling like I'm headed for a
Bm7   Cadd9     G            D
Break down  and I don't know why


Chorus:
G                               Cadd9                 
I'm not crazy I'm just a little unwell  I know right now you can't tell
Em7                                    D
But stay a while and maybe then you'll see  a different side of me
G                               Cadd9
I'm not crazy I'm just a little impaired I know right now you don't care
Em7                                   D
But soon enough you're gonna think of me, and how I used to 






Verse 2:
Cadd9  D  G            Em7             Cadd9       D              Em7
Be,    me talking to myself in public  and dodging glances on the train
Cadd9      D     G                     Em7
and     I know I know they've all been talking about me
Cadd9                          D
I can hear them whisper and it makes me think there must be something

[ Tab from: http://www.guitartabs.cc/tabs/m/matchbox_twenty/unwell_crd.html ]
Pre-Chorus:
Bm7       Cadd9   G              D
Wrong with me     out of all the hours thinking
Bm7  Cadd9   G            D
Some how     I've lost my mind

Chorus:
G                               Cadd9                 
I'm not crazy I'm just a little unwell  I know right now you can't tell
Em7                                    D
But stay a while and maybe then you'll see  a different side of me
G                               Cadd9
I'm not crazy I'm just a little impaired I know right now you don't care
Em7                                   D
But soon enough you're gonna think of me, and how I used to 

Bridge:
 Cadd9                                               Cadd9
e|--------------------|                               |-----------------------|
B|---10-12-10~--------|                               |---10-12-10~------10---|
G|11----------11/13-11|                               |11-----------9/11----11|
D|--------------------|                               |-----------------------|
A|--------------------| Em7                     Cadd9 |-----------------------|
E|--------------------| I've been talking in my sleep |-----------------------|

                                     Cadd9
                                   e|-----------------------------|
                                   B|----10-12-10--12-10-------10-|
                                   G|-11-----------------9/11--11-|
                                   D|-----------------------------|
Em7                         Cadd9  A|-----------------------------|
Pretty soon they'll come to get me E|-----------------------------|

                               D       
                             e|----------------------------------17-16-12~|
                             B|----------10-12-10-10--14--12-12-----------|
                             G|9~~~9/11-----------------------------------|
                             D|-------------------------------------------|
Em7                    D     A|-------------------------------------------|
Yeah they're taking me away  E|-------------------------------------------|   









Chorus:
G                               Cadd9                 
I'm not crazy I'm just a little unwell  I know right now you can't tell
Em7                                    D
But stay a while and maybe then you'll see  a different side of me
G                               Cadd9
I'm not crazy I'm just a little impaired I know right now you don't care
Em7                                   D
But soon enough you're gonna think of me, and how I used to be


(Self-Made) Outro:
  G                               Cadd9  Em7                             D
e|-------------------------------|------|-------------------------------|-------|
B|-----10-12-10---------10-12-10-|------|-----10-12-10---------10-12-9--|-------|
G|9/11----------9-9/11-----------|------|9/11----------9-7/9------------|-------|
D|-------------------------------|------|-------------------------------|-------|
A|-------------------------------|------|-------------------------------|-------|
E|-------------------------------|------|-------------------------------|-------|
Em7               D
Yea how I used to be
  G
E|--------------------------------|
B|-----10-12-10---------10-12-10--|
G|9/11----------9-9/11------------|
D|--------------------------------|
A|--------------------------------|
E|--------------------------------|
G                 Cadd9 
I'm just a little unwell
Comments