Matchbox 20 - Unwell Chords & Tabs

 

Unwell Chords & Tabs

Matchbox 20 Chords & Tabs

Version: 6 Type: Tab 0 ratings
1 star 2 stars 3 stars 4 stars 5 stars
comments

Unwell Tab

Unwell (matchbox twenty)

Transcribed by: Joshua Thaddeus B Revelo
               (gitarista@pinoymusika.com)


This Tab is approximately 100% correct.

"I would like to dedicate this song to my family and friends, and most
especially to God."

intro:

e-------5h7--5----------5h7-5-5--|-------5h7--5-----------5h7-4------|
b---5/8-5h7--5-7-5--5/8-5h7-5-5--|--5/8--5h7--5-7-5--5/8--5h7-5------|
g---4/6--------6-4--4/6----------|--4/6---------6-4--4/6-------------|
d--------------------------------|-----------------------------------|
a--------------------------------|-----------------------------------|
D--------------------------------|-----------------------------------|


e-------5h7--5----------5h7-5-5--7-5---------5h7--5------------------|
b---5/8-5h7--5-7-5--5/8-5h7-5-5--7-5-7-5-5/8-5h7--5------------------|
g---4/6--------6-4--4/6--------------6-4-4/6-------------------------|
d--------------------------------------------------------------------|
a--------------------------------------------------------------------|
D--------------------------------------------------------------------|

[ Tab from: http://www.guitartabs.cc/tabs/m/matchbox_20/unwell_tab_ver_6.html ]
e-------5h7--5----------5h7-5-4--0---0h2---2/4-----------------------|
b---5/8-5h7--5-7-5--5/8-5h7-5-5----0-----0---------------------------|
g---4/6--------6-4--4/6----------------------------------------------|
d--------------------------------------------------------------------|
a--------------------------------------------------------------------|
D--------------------------------------------------------------------|

Verse:

e----------------|--------------|--12--14-12----12------------------|
b----------------|--------------|--12-----14-14-12------------------|
g------2---------|-----2--------|--13-----14-14-13------------------|
d--0-2-2-4-0-2-4-|-0-2-2-4-0-2--|--11-----12-14-14------------------|
a--0-2-0-4-0-2-4-|-0-2-0-4-0-2--|-----------------------------------|
D--0-2---4-0-2-4-|-0-2---4-0-2--|-----------------------------------|

chorus:

e-0--0------|
b-0--3--2---|
g-2--2--2-1-|
d-2--0--2-2-|  2X
a-0-----x-2-|
D-------4-2-|


adlib:

e-------7-9-------|------7-----7-----5---------|
b--7/10-7-10--5/7-|-7/10-7--10-7-5/7-5-7-------|
g--6/9--------4/6-|-7/9-----9----4/6---6-------|
d-----------------|----------------------------|
a-----------------|----------------------------|
D-----------------|----------------------------|

e-------7----7-9--------5--------------------9-------14----14/12-17p16---|
b--7/10-7-1o-7-10-5-5/7-5-7-5-------10----10---10/14-14-14-14/12------17-|
g--6/9----9-------4-4/6---6-4--9h11----11--------------------------------|
d------------------------------------------------------------------------|
a------------------------------------------------------------------------|
D------------------------------------------------------------------------|



Long live Xavier University!!!
Comments