Matchbox 20 - Unwell Chords & Tabs

 

Unwell Chords & Tabs

Matchbox 20 Chords & Tabs

Version: 3 Type: Tab 0 ratings
1 star 2 stars 3 stars 4 stars 5 stars
comments

Unwell Tab

#----------------------------------PLEASE NOTE---------------------------------#
#This file is the author's own work and represents their interpretation of the #
#song. You may only use this file for private study, scholarship, or research. #
#------------------------------------------------------------------------------#
Artist: Matchbox 20
Song: Unwell
Tabbed by: Reuben Leong

A002220
Asus2002200 
E022100
F#m224422
C#mxx2120
Dxx0232

Intro:

Anybody wif a banjo??  ##---(Q)

     ^ ^  
e|--------5h7-5----------5h7-5-5~----|--------5h7-5----------5h7-5-4~----|
B|----5/7-5h7-5-7/5--5/7-5h7-5-5~----|----5/7-5h7-5-7/5--5/7-5h7-5-5~----|
G|----4/6-------6/4--4/6-------------|----4/6-------6/4--4/6-------------|
D|-----------------------------------|-----------------------------------|
A|-----------------------------------|-----------------------------------|
E|-----------------------------------|-----------------------------------|
[ Tab from: http://www.guitartabs.cc/tabs/m/matchbox_20/unwell_tab_ver_3.html ]
     ^   
e|--------5h7-5----------5h7-5-5~-|-7/5---------5/7~~--------------------|
B|----5/7-5h7-5-7/5--5/7-5h7-5-5~-|-7/5-7/5-5/7-5/7~~--------------------|
G|----4/6-------6/4--4/6----------|-----6/4-4/6--------------------------|
D|--------------------------------|--------------------------------------|
A|--------------------------------|--------------------------------------|
E|--------------------------------|--------------------------------------|
           ^   
e|--------5h7-5----------5h7-5-4~----|-----------------------------------|
B|----5/7-5h7-5-7/5--5/7-5h7-5-5~----|----5--------/5~~~~/9~~~-----------|
G|----4/6-------6/4--4/6-------------|--------4--------------------------|
D|-----------------------------------|-----------------------------------|
A|-----------------------------------|-----------------------------------|
E|-----------------------------------|-----------------------------------|




(Chorus)

Bridge: 

       
e|--------7-5---0--2~~-----------|-----------7-5--0h2/5--2~~~--------| 
B|----5/7-7-5---0--2~~-----------|-------5/7-7-5--0h2/5--2~~~--------|
G|----4/6------------------------|-------4/6-------------------------|
D|-------------------------------|-----------------------------------|
A|-------------------------------|-----------------------------------|
E|-------------------------------|-----------------------------------|
  I've been talking in my sleep    Pretty soon they'll come to get me

e|--------7-5-7h9------0h2/5--2~~~--?---17/16--12-|
B|----5/7-7-5-7h10-----0h2/5--2~~~--?-------------|
G|----4/6---------------------------?-------------|
D|----------------------------------?-------------|
A|----------------------------------?-------------|
E|----------------------------------?-------------|
  They'll be taking me away~


(Chorus)



The bridge is the best I could churn up on the acoustic, otherwise EnJoY!!
Damn....Gotta get my hands on a electric~  =)
Comments