Matchbox 20 - Unwell Chords & Tabs

 

Unwell Chords & Tabs

Matchbox 20 Chords & Tabs

Version: 2 Type: Tab 1 rating
1 star 2 stars 3 stars 4 stars 5 stars
comments

Unwell Tab

Song Title: Unwell (Acoustic)
Artist: Matchbox20
*Original key is G#
Tabbed By: Jay Cuadro



*Intro*
[ Tab from: http://www.guitartabs.cc/tabs/m/matchbox_20/unwell_tab_ver_2.html ]
	
e|-------------5-/-7-/-5------------------5-/-7-5X-5------5-7-/-5-------------------5---------------------------------------------------------------
B|------5-/-7-----------7-/-5------7-/-5---------------------------7-/-5-----5-/-7-----7----------------------------------------------------------------
G|------4-/-6-----------6-/-4------6-/-4---------------------------6-/-4-----4-/-6-------6--------------------------------------------------------------
D|----------------------------------------------------0-------------------------------------------------------------------------
A|------0-----------------------------------------------------------------------------------------------------------------------
E|-----------------------------------------------------------------------------------------------------------------------------

	
e|------------------------0----------0-------------------------------------------------------------------------------------------
B|----------7-------------------------------------------------------------------------------------------------------------------
G|--------6---6---------1---1-1-/-2-----1----------------------------------------------------------------------------------------------
D|------4-----------------------------------------------------------------------------------------------------------------------
A|-----------------------------------------------------------------------------------------------------------------------------
E|------------------0-------------------------------------------------------------------------------------------------------------







Comments