Matchbox 20 - Unwell Chords & Tabs

 

Unwell Chords & Tabs

Matchbox 20 Chords & Tabs

Version: 1 Type: Tab 0 ratings
1 star 2 stars 3 stars 4 stars 5 stars
comments

Unwell Tab

Awesome song. Sorry I couldn't convert the banjo to guitar.
Standard Tuning.



Intro:

e|-0----0----0----0-----|
b|.0----3----0----0----.|
g|-2----2----2----1-----|
d|-2----0----2----2-----|
a|.0--------------2----.|
E|-----------2----0-----|

Verse:

e|----------------------------------------------|
b|----------------------------------------------|
g|----------------------------------------------|
d|----------------------------------------------|
a|-5-----0-----5----------5-----0-----5---------|
E|----0-----2-----0--2-------0-----2-------0----|

Pre-Chorus:

e|--4--2-----0---|
b|.-5--3--2--0--.|
g|--6--2--2--1---|
d|--6--0--2--2---|
a|.-4-----0--2--.|
E|-----------0---|

Chorus:

e|-0----0----0----0-----|
b|.0----3----0----0----.|
g|-2----2----2----1-----|
d|-2----0----2----2-----|
a|.0--------------2----.|
E|-----------2----0-----|

Verse:
[ Tab from: http://www.guitartabs.cc/tabs/m/matchbox_20/unwell_tab.html ]
e|----------------------------------------|
b|----------------------------------------|
g|----------------------------------------|
d|----------------------------------------|
a|-5-----0----------5-----0-----5---------|
E|----0-----2--2-------0-----2-------0----|

Pre-Chorus:

e|--4--2-----0---|
b|.-5--3--2--0--.|
g|--6--2--2--1---|
d|--6--0--2--2---|
a|.-4-----0--2--.|
E|-----------0---|

Chorus:

e|-0----0----0----0-----|
b|.0----3----0----0----.|
g|-2----2----2----1-----|
d|-2----0----2----2-----|
a|.0--------------2----.|
E|-----------2----0-----|

Bridge:

e|--0----0-----|-0----0----|
b|.-3----0----.|-0----0----|
g|--2----2-----|-1----1----|
d|--0----2-----|-2----2----|
a|.-----------.|-2----2----|
E|-------2-----|-0----0----|
 ^repeat 3 times

Chorus:

e|-0----0----0----0-----|
b|.0----3----0----0----.|
g|-2----2----2----1-----|
d|-2----0----2----2-----|
a|.0--------------2----.|
E|-----------2----0-----|
^^^^^^^^^^^^^repeat til end


FIN
Comments