Matchbox 20 - Unwell Chords & Tabs

 

Unwell Chords & Tabs

Matchbox 20 Chords & Tabs

Version: 2 Type: Chords 0 ratings
1 star 2 stars 3 stars 4 stars 5 stars
comments

Unwell Chords

   
-------------------------------------------------------------------------------
			     UNWELL - Matchbox 20
-------------------------------------------------------------------------------

Tabbed by: stratdoc
Email: stratdoc@attbi.com

Chords

      A     A/E     F#m    C#m       D

e|----0-------0-------2------4-------2-----------------------------------------|
B|----2-------2-------2------5-------3-----------------------------------------|
G|----2-------2-------2------6-------2-----------------------------------------|
D|----2-------2-------4------6-------0-----------------------------------------|
A|----0-------0-------4------4-------X-----------------------------------------|
E|----X-------0-------2------X-------X-----------------------------------------|


Intro: A   D   F#m  E -- 2X


A/E   E
ALL DAY

A              F#m
STARING AT THE CEILING MAKING

A/E           E             F#m
FRIENDS WITH SHADOWS ON MY WALL

A/E     E
ALL NIGHT

A              F#m
I'M HEARING VOICES TELLING ME
[ Tab from: http://www.guitartabs.cc/tabs/m/matchbox_20/unwell_crd_ver_2.html ]
     D
THAT I SHOULD GET SOME SLEEP

         E
BECAUSE TOMORROW MIGHT BE GOOD FOR SOMETHING



C#m   D
HOLD ON 

      A                E
I'M FEELING LIKE I'M HEADED FOR A 

C#m     D
BREAKDOWN

A             E
I DON'T KNOW WHY

A                                  D
I'M NOT CRAZY I'M JUST A LITTLE UNWELL
I KNOW RIGHT NOW YOU CAN'T TELL

F#m                                    E
BUT STAY AWHILE AND MAYBE THEN YOU'LL SEE
A DIFFERENT SIDE OF ME

A                                      D
I'M NOT CRAZY I'M JUST A LITTLE IMPAIRED
I KNOW RIGHT NOW YOU DON'T CARE

F#m                                  E
BUT SOON ENOUGH YOU'RE GONNA THINK OF ME
AND HOW I USED TO BE



SEE ME
TALKING TO MYSELF IN PUBLIC
AND DODGING GLANCES ON THE TRAIN
I KNOW
I KNOW THEY'VE ALL BEEN TALKING 'BOUT ME
I CAN HEAR THEM WHISPER
AND IT MAKES ME THINK THERE MUST BE SOMETHING WRONG
WITH ME

OUT OF ALL THE HOURS THINKING
SOMEHOW
I'VE LOST MY MIND

(CHORUS)

TALKING IN MY SLEEP
PRETTY SOON THEY'LL COME TO GET ME
THEY'LL BE TAKING ME AWAY
Comments