Matchbox 20 - Unwell Chords & Tabs

 

Unwell Chords & Tabs

Matchbox 20 Chords & Tabs

Version: 1 Type: Chords 0 ratings
1 star 2 stars 3 stars 4 stars 5 stars
comments

Unwell Chords

   
#----------------------------------PLEASE NOTE---------------------------------#
#This file is the author's own work and represents their interpretation of the #
#song. You may only use this file for private study, scholarship, or research. #
#------------------------------------------------------------------------------#

Song -> Unwell
Artist -> Matchbox Twenty
Album -> More than you think you are
Tabbed by -> JJ Navas
E-mail -> Jose_Navas20@hotmail.com

CHORDS USED:

    A   D  F#m  E  C#m

E-|-0---0---2---0---4-|-
B-|-2---3---2---0---5-|-
G-|-2---2---2---1---6-|-
D-|-2---0---4---2---6-|-
A-|-0---x---4---2---4-|-
E-|-x---x---2---0---4-|-


Intro:

    A                              D

E-|-----5-7-5---------------5-7-5--5-|-
B-|-5-7-------7-5-------5-7----------|-
G-|----------------------------------|-
D-|----------------------------------|-
A-|----------------------------------|-
E-|----------------------------------|-

   F#m                             E
[ Tab from: http://www.guitartabs.cc/tabs/m/matchbox_20/unwell_crd.html ]
E-|-----5-7-5---------------5-7-5--4-|-
B-|-5-7-------7-5-------5-7----------|-
G-|----------------------------------|-
D-|----------------------------------|-
A-|----------------------------------|-
E-|----------------------------------|-

    A                              D

E-|-----5-7-5---------------5-7-5--5-|-
B-|-5-7-------7-5-------5-7----------|-
G-|----------------------------------|-
D-|----------------------------------|-
A-|----------------------------------|-
E-|----------------------------------|-

E-|-7-5---------------5-7-5-|-
B-|-----7-5-------5-7-------|-
G-|-------------------------|-
D-|-------------------------|-
A-|-------------------------|-
E-|-------------------------|-

   F#m                             E

E-|-----5-7-5---------------5-7-5--4-|-
B-|-5-7-------7-5-------5-7----------|-
G-|----------------------------------|-
D-|----------------------------------|-
A-|----------------------------------|-
E-|----------------------------------|-
 

E-|-0----0-2---2-2-4-|-
B-|---0--------------|-
G-|------------------|-
D-|------------------|-
A-|------------------|-
E-|------------------|-



THAT'S IT. COMMENTS, QUESTIONS, CRITICS, OR ANYTHING, E-MAIL ME AT Jose_Navas20@hotmail.com
Comments