Matchbox 20 - Shame (intro) Chords & Tabs

 

Shame (intro) Chords & Tabs

Matchbox 20 Chords & Tabs

Version: 1 Type: Chords 0 ratings
1 star 2 stars 3 stars 4 stars 5 stars
comments

Shame (intro) Chords

   
#----------------------------------PLEASE NOTE---------------------------------#
#This file is the author's own work and represents their interpretation of the #
#song. You may only use this file for private study, scholarship, or research. #
#------------------------------------------------------------------------------#
#

Date: Wed, 14 Jan 1998 18:59:41 -0800
From: Rafael Amaral 
Subject: "Shame" by Matchbox 20.

Song:Shame
Artist:Matchbox 20
Album: Yourself or Someone Like You

               Tabbed by Rafael Amaral(ramaral@net.em.com.br)
[ Tab from: http://www.guitartabs.cc/tabs/m/matchbox_20/shame_intro_crd.html ]
This is played with capo, but i'm tabbing it without it.If you want it
with capo e-mail at ramaral@net.em.com.br

Intro:(Verse)
    B                    - E
E------------2~---------------0-----2----0---------|
B---------4-----4----------------0----------0------|
G-------4----------4-------------------------------|
D--------------------------2-----------------------|
A---2----------------------------------------------|
E--------------------------------------------------|

    G#m              - E
E-------4------4~---------4----------|
B---------4---------------------5----|
G-----------4----------4----4--------|
D------------------------------------|
A------------------------------------|
E------------------------------------|
Comments