Matchbox 20 - Shame Chords & Tabs

 

Shame Chords & Tabs

Matchbox 20 Chords & Tabs

Version: 1 Type: Bass Tab 0 ratings
1 star 2 stars 3 stars 4 stars 5 stars
comments

Shame Bass Tab

-------------------------------------------------------------------------------
			     Shame - Matchbox 20
-------------------------------------------------------------------------------

Tabbed By : Tony Beet


Tuning: Standard

G|--------|--------|--------|--------|
D|--------|--------|--------|--------|
A|2-------|--------|2-------|--------|
E|--------|0-------|--------|0-------|

G|--------|--------|--------|--------|--------|--------|--------|--------|
D|--------|--------|--------|--------|--------|--------|--------|--------|
A|-2-----2|--------|-2------|--------|-2-----2|--------|-2-----2|--------|
E|0-------|0-------|0-------|0-------|0-------|0-------|0-------|0-------|

G|--------|--------|--------|--------|
D|--------|--------|13--9---|--------|               13 not 1 3
A|-2-----2|--------|--------|--------|
E|0-------|0-------|--------|12------|               12 not 1 2

G|--------|--------|--------|--------|--------|--------|
D|------6-|4---2---|------6-|4---2---|6-------|--------|
A|02------|--------|--------|--------|-6------|--------|
E|--------|--------|02------|--------|--74----|--000000|



First Chorus

G|--------|--------|--------|--------|--------|--------|--------|--------|
D|--------|--------|--------|-2--2---|2-------|--------|--------|--------|
A|2---2---|--------|-4--4---|4-------|-2--2---|--------|--------|--------|
E|--------|2---2---|2-------|--------|--------|4---4---|2---2---|--000000|



G|--------|--------|--------|--------|--------|--------|--------|--------|
D|--------|--------|--------|--------|--------|--------|--------|--------|
A|-2-----2|--------|-2-----2|--------|-2-----2|--------|-2-----2|--------|
E|0-------|0-------|0-------|0-------|0-------|0-------|0-------|0-------|

G|--------|--------|--------|--------|
D|--------|--------|13--9---|--------|             13 not 1 3
A|-2-----2|--------|--------|--------|             12 not 1 2
E|0-------|0-------|--------|12------|

G|--------|--------|--------|--------|--------|--------|
D|------6-|4---2---|------6-|4---2---|6-------|--------|
A|02------|--------|--------|--------|-6------|--------|
E|--------|--------|02------|--------|--74----|--000000|


Second Chorus
[ Tab from: http://www.guitartabs.cc/tabs/m/matchbox_20/shame_btab.html ]
G|--------|--------|--------|--------|--------|--------|--------|--------|
D|--------|--------|--------|-2--2---|2-------|--------|--------|--------|
A|2---2---|--------|-4--4---|4-------|-2--2---|--------|--------|--------|
E|--------|2---2---|2-------|--------|--------|4---4---|22222222|00000000|

G|--------|--------|--------|--------|--------|--------|--------|--------|
D|--------|--------|--------|22222222|--------|--------|--------|--------|
A|22222222|--------|44444444|--------|22222222|--------|--------|--------|
E|--------|22222222|--------|--------|--------|44444444|22222222|00000000|







G|--------|--------|--------|--------|--------|--------|--------|--------|
D|--------|--------|--------|--------|--------|--------|--------|--------|
A|--------|--------|--------|--------|--------|--------|--------|--------|
E|00000000|22222222|44444444|00000000|00000000|22222222|44444444|00000000|



G|--------|--------|--------|--------|--------|--------|--------|--------|
D|--------|--------|--------|--------|--------|--------|--------|--------|
A|77664422|--------|--------|--------|--------|-2------|--------|2-------|
E|--------|22222222|44444444|0-------|--------|0-------|0-------|--------|

G|--------|--------|--------|--------|--------|
D|--------|--------|--------|13--9---|--------|       13 not 1 3
A|--------|2-------|--------|--------|--------|       12 not 1 2
E|0-------|--------|0-------|--------|12------|

G|--------|--------|--------|--------|--------|--------|--------|
D|------6-|4---2---|------6-|4---2---|6-------|--------|--------|
A|02------|--------|02------|--------|-6------|--------|--------|
E|--------|--------|--------|--------|--74----|00000000|00000000|

Third Chorus

G|--------|--------|--------|--------|--------|--------|--------|--------|
D|--------|--------|--------|22222222|--------|--------|--------|--------|
A|22222222|--------|44444444|--------|22222222|--------|--------|--------|
E|--------|22222222|--------|--------|--------|44444444|22222222|00000000|

G|--------|--------|--------|--------|--------|--------|--------|--------|
D|--------|44444444|--------|22222222|--------|--------|--------|--------|
A|22222222|--------|44444444|--------|22222222|--------|--------|--------|
E|--------|--------|--------|--------|--------|44444444|22222222|00000000|

G|--------|--------|
D|--------|--------|
A|--------|2-------|
E|00000000|--------|


First attempt at tabbing so please be gentle with the criticism!!
Comments