Matchbox 20 - Real World Chords & Tabs

 

Real World Chords & Tabs

Matchbox 20 Chords & Tabs

Version: 1 Type: Tab 0 ratings
1 star 2 stars 3 stars 4 stars 5 stars
comments

Real World Tab

   
Matchbox 20
Real World
Yourself, or Someone Like You

Now, I'm not 100% sure on all of this, but it's better than the other versions on here.

Intro/ Main Riff

E-------------------------------------------------
b-------------------------------------------------
g-------------------------------------------------
d-5-3-------3-5-3-------3-5-3-------3-5-3-------3-
a-----5s3s1-------5s3s1-------5s3s1-------5s3s1---
e-------------------------------------------------
The chord behind this riff is
E---
b---
g-8-
d-8-
a-6-
e---

Verses

E------------------
b------------------
g-3-3-10-------8---
d-3-3-10-3-5-5-8-3-
a-1-1--8-3-5-5-6-3-
e--------1-3-3---1-

Bridge

E----------
b----------
g-3-10---8-
d-3-10-5-8-
a-1--8-5-6-
e------3---

Chorus
[ Tab from: http://www.guitartabs.cc/tabs/m/matchbox_20/real_world_tab.html ]
E------------
b------------
g-3-8-10-8-3-
d-3-8-10-8-3-
a-1-6--8-6-1-
e------------

Break
Same as verses with 
E-13- played over and over, getting faster as you go.

Break #2

E-----------------------
b-----------------------
g-5-5-5-3---3-5-5-5-3---back to main riff
d-5-5-5-3-5-3-5-5-5-3-5-
a-3-3-3-1-5-1-3-3-3-1-5-
e---------3-----------3-

Solo

E---------------3-5-6-1-3-5-6-8-10-
b----------------------------------
g-3-5-7-3-3-5-7--------------------
d----------------------------------
a----------------------------------
e----------------------------------
With this behind
E----------------
b----------------
g-3-5-3---8-10-3-
d-3-5-3-5-8-10-3-
a-1-5-1-5-6--8-1-
e---3---3--------

I'm not quite sure that the Bridge #2 is exactly right, or the 
background to the solo, but everything else should be pretty close.

-The_Battery_Kid
Comments