Matchbox 20 - Push Chords & Tabs

 

Push Chords & Tabs

Matchbox 20 Chords & Tabs

Version: 4 Type: Tab 0 ratings
1 star 2 stars 3 stars 4 stars 5 stars
comments

Push Tab

   
solo guitar *what i play when alone*
distortion should be a fair amount, not too much though.
tuning: down one half step-Eb-Ab-Db-Gb-Bb-Eb

T= fret with thumb
h= hammer on
s= slide
x= mute
intro (distortion)*strum the chords,rhythm isn't hard to figure out*
eb-----3-------3---2---0--0-------------------------|
Bb-----3-------3---3---0--0-------------------------|
Gb-----0-------2---2---0--0----------0--------------|
Db-----0-------0---0------2----0-0h2-0--------------|
Ab--2--x-------x---x------2----3-3-3----------------|
Eb--3--3----2--2---2------0-------------------------|
            T  T   T
verse
eb--3-------0------------------------------------|
Bb--3---3---0------------------------------------|
Gb--0---2---0----------0-------------------------|
Db--0---0---2---0-0h2--0-------------------------|
Ab--x---x---2---3-3-3----------------------------|
Eb--3---2---0------------------------------------|
        T

pre-chorus *strum last two chords only*
eb---0---3----------10----0---3-----10------10-----2--3-----|
Bb---3---3------7h8-------3---3---8-----7h8--------3--3-----|
Gb---2---0----------------2---0--------------------2--2-----|
Db---0---2----------------0---2--------------------0--0-----|
Ab---0---3----------------0---3-----------------------------|
Eb----------------------------------------------------------|

chorus *strum the Gb5 chord and the Cb/Gb chord only*
eb---3---2--3--2---0---2-2--3-3-----3---2--3--0---0---2-3--0-0---|
Bb---3---3--3--3---1---3-3--3-3-----3---3--3--3---1---3-3--0-0---|
Gb---0---2--2--2---0---2-2--0-0-----0---2--2--2---0---2-2--0-0---|
Db---0---0--0--0---2---0-0--0-0-----0---0--0--0---2---0-0--------|
Ab---x-------------3----------------x-------------3--------------|
Eb---3-------------3----------------3-------------3--------------|

                                   *strum*
eb--0-0--xxxx--2-2--xxxx--0-0--xxxx--2--3--0--0--xxxx--2--2--xxxx---------|
Bb--0-0--xxxx--3-3--xxxx--1-1--xxxx--3--3--0--0--xxxx--3--3--xxxx---------|
Gb--0-0--xxxx--2-2--xxxx--0-0--xxxx--2--2--0--0--xxxx--2--2--xxxx---------|
Db--2-2--xxxx--0-0--xxxx--2-2--xxxx--0--0--2--2--xxxx--0--0--xxxx---------|
Ab--2-2--xxxx-------xxxx--3-3--xxxx--------2--2--xxxx--------xxxx---------|
Eb--0-0--0000-------0000--3-3--0000--------0--0--0000--------0000---------|

fill before solo
eb-------------------------|
Bb---------5-----7---------|
Gb-------5---5-----7-------|
Db-----5-------------7-----|
Ab-------------------------|
Eb-------------------------|
[ Tab from: http://www.guitartabs.cc/tabs/m/matchbox_20/push_tab_ver_4.html ]
solo
eb----------------------------------------------------------------------|
Bb-------------------------------------------------------8-8h10--8------|
Gb------------7---------------------------7--------9--------------------|
Db----5----5-----5h7s9---5-------------5------7s9-----------------------|
Ab--------------------------5h7--5--5-----------------------------------|
Eb----------------------------------------------------------------------|

second verse (clean) *come in after eight beats*
*play around, these are just guidlines*
eb---5--------------5-------------5------8p5---------|
Bb---------8--8--------8--8-----------8------8-------|
Gb------7-------7-----------7------------------------|
Db----------------0-----------0--0-------------------|
Ab---------------------------------------------------|
Eb---------------------------------------------------|

second verse cont'd
eb--------5--5---------5-5--------5-----------------|
Bb--------------8----------8---------8---------8----|
Gb----------------7--7--------7--7--------9p7-------|
Db---0-0--------------------------------------------|
Ab--------------------------------------------------|
Eb--------------------------------------------------|

*repeat first half of second verse*

pre-chorus *same as before*

chorus *same as before*

fill before bridge *strum*
eb---0----2--------------------------------------|
Bb---1----3--------------------------------------|
Gb---0----2--------------------------------------|
Db---2----0--------------------------------------|
Ab---3-------------------------------------------|
Eb---3-------------------------------------------|

bridge *strum chords except*  *here* *& here*
eb---0-------0---2---0----------0-------2-----------------|
Bb---0---3---1---3---0---3------1-------3-----------------|
Gb---0---2---0---2---0---2------0-------2-----------------|
Db---2---0---2---0---2---0------2-------0-----------------|
Ab---2---x---3-------2---x------3-------------0-----------|
Eb---0---2---3-------0---2------3----------------3--0-----|
         T               T
bridge cont'd *strum all*
eb----0---2---0---2---0----2----8--10----------------|
Bb----0---3---1---3---0----3----8--10----------------|
Gb----0---2---0---2---0----2-------------------------|
Db----2---0---2---0---2----0-------------------------|
Ab----2---x---3-------2----x-------------------------|
Eb----0---2---3-------0----2-------------------------|
          T                T
chorus *same as before*

fill before outro *same as fill before bridge*

outro *strum all*
eb--15---------0-----0-----------------------------|
Bb--15---15----0-----13----------------------------|
Gb--0----14----0-----0-----------------------------|
Db--0----0-----14----14----------------------------|
Ab--x----x-----x-----15----------------------------|
Eb--15---14----12----------------------------------|

end on
eb------15----|
Bb------15----|
Gb------0-----|
Db------0-----|
Ab------x-----|
Eb------15----|
Comments