Matchbox 20 - Push Chords & Tabs

 

Push Chords & Tabs

Matchbox 20 Chords & Tabs

Version: 2 Type: Tab 0 ratings
1 star 2 stars 3 stars 4 stars 5 stars
comments

Push Tab

#----------------------------------PLEASE NOTE---------------------------------#
#This file is the author's own work and represents their interpretation of the #
#song. You may only use this file for private study, scholarship, or research. #
#------------------------------------------------------------------------------#
#

* This file is to be used for private study, scholarship, or research *

Artist:      Matchbox 20
Album:       Yourself of Someone Like You
Song:        Push
Transcriber: Tony Tamburello
Corrected:   5-7-97

Well, this is my first attempt at tabbing a song for 
others.  I love this tune!  This is mostly
rhythm guitar with the essential lead stuff thrown
in.  If you need the arpeggios, using barred major
chords sounds pretty good, not perfect though.

This version contains an correction from the last--
I had the wrong strings on the little outro from 
the first half of the bridge.  Hope I didn't
confuse anybody.  

Intro: Clean Tone

Strum:  ///       ///        ///     ///2X
E-----------------------------------------------
B-----------------------------------------------
G-------11-------------------8------------------
D---11--11--------11------8--8-------9----------
A---9----------11-11------6--------9-9----------
E--------------9-------------------7------------


Verses: Clean Tone              
       

----------------------------------------------------
----------------------------------------------------
----------11--------------------------------------8-    
----------11-----------------11-------------------8-   
----------9------------------11-------------------6- 
------------------------------9---------------------    


--------------------------------------------------------------------
--------------------------------------------------------------------
-----------------------11----------------------------8--------------
------7-///------------11-------------11-------------8--------7-///-
------7----------------9--------------11-------------6--------7-----
------9-------------------------------9-----------------------9-----


Pre-chorus: add distortion  
---------------------------------------H--9-------   
-------------------------------------7-9----------
-10-----------------------------8--8--------------
-11-----------------------------9--9--------------
-11-----------------------------9--9--------------
-9------------------------------7-----------------



----------------------------------
----------------------------------
----------------------------10----
----------------------------11----
----------------------------11----
----------------------------9-----

  
---------------------------------------H--9------
-------------------------------------7-9---------
--------------------------------8--8-------------
--------------------------------9--9-------------
--------------------------------9--9-------------
--------------------------------7----------------


[ Tab from: http://www.guitartabs.cc/tabs/m/matchbox_20/push_tab_ver_2.html ]
----------------------------------
----------------------------------
---------10-----------------------
---------11--///--into chorus-----
---------11-----------------------
----------9-----------------------


Chorus: With distortion, strummed

----------------------------------------------    
---------------------------------------------- 
-11-------------------------------------------    
-11------11---------------9------------11-----  
-9-------11---------------9------------11-----  
---------9----------------7------------9------  

 I wanna push you down,   well I will, well I will
----------------------------------------------    
---------------------------------------------- 
-11-------------------------------------------    
-11------11---------------9------------11-----  
-9-------11---------------9------------11-----  
---------9----------------7------------9------ 

  I wanna take you for granted     2X     ... Yeah, well I will
----------------------------------------------------------------
----------------------------------------------------------------
-8--------------------------------------------------------------
-8-/------11-//---------9-//-------11-///--------...into solo---
-6--------11------------9----------11---------------------------
----------9-------------7----------9----------------------------


Solo:
                 / = slide     V = vibrato
------------------------------------------------------
--------------------------------------------------V---
-----------------------------------8-----11-11/13-11--
-----11----8------------------11-8--------------------
-9-9----11---9-------------11-------------------------
---------------10/11-9---9----------------------------


Verse 2:

-->to chorus

Bridge: strummed

---------------------------------------------------------------------
---------------------------------------------------------------------
-8-------------------------------------------------------------------
-8-----------9-------------7----------9------------------------------
-6-----------11------------7----------11-----------------------------
-------------11------------9----------11-----------------------------


-----------------------------------------
-----------------------------------------
-8---------------------------------------
-8--------9----------7---STOP--7----6----
-6--------11---------7---------7------9-8
----------11---------9---------9---------


---------------------------------
---------------------------------
-8-------------------------------
-8-------9---------7----------9--
-6-------11--------7----------11-
---------11--------9----------11-


-----------------------------------------------------------
-----------------------------------------------------------
-8----------------------------(with urgency...into chorus)-
-8-------9---------7----------9----------------------------
-6-------11--------7----------11---------------------------
---------11--------9----------11---------------------------


(That's pretty much it... but at the end of the 
song--after the bridge--use the following progression:)

    and end on:
-------------------------------
-------------------------------
----11--------8-----------11---
----11---11---8---9-------11---
----9----11---6---9-------9----
----------9-------7------------
Comments