Matchbox 20 - Mad Season Chords & Tabs

 

Mad Season Chords & Tabs

Matchbox 20 Chords & Tabs

Version: 1 Type: Tab 0 ratings
1 star 2 stars 3 stars 4 stars 5 stars
comments

Mad Season Tab

Artist : Matchbox 20
Song/Title : Mad Season
Album : Mad Season
Transcribed by : David Liew

hey hey hey!! at last! Mad Season tabbed out! i'm glad i'm the first 
person to tabbed it out, its not that hard to play, but u have to 
listen to the song in order to play this song =)
theres not much guitar in this song, and the guitar uses effects too!
anyway heres my version, and its 100% correct!! i think heh
Standard tuning  p.s - any questions or comments just email me at dc_joc@hotmail.com

Intro (riff 1)                 (riff 2) this riff is played at times in verses
E|----------------------------|---------------|
B|--9--9-8-8---11-8-----------|----9--9-8-8---|
G|-10-10-8-8------------------|---10-10-8-8---|
D|-----------8------11/10 8---|---------------|
A|----------------------------|---------------|
E|----------------------------|---------------|

Verse 1 & 2 - play riff 2


Bridge ( this part is actually played with a bass, but on electric
         it sounds ok too!)

E|-----------------------------------------------------------
B|-----------------------------------------------------------
G|-----------------------------------------------------------
D|-----------------------------------------------------------
A|-2r0-----------------222--222------------222---5---8-------
E|-----4(3)2-222--222-2----2---0-222-222-2---------------6---

  So why ya gotta stand there....            ...I need you now  
[ Tab from: http://www.guitartabs.cc/tabs/m/matchbox_20/mad_season_tab.html ]
Chorus
E|----11----11--13------| (repeat)    |--11-10------------
B|-10----10-------------|             |--------13-11------
G|----------------------|   then =    |-------------------
D|----------------------|             |-------------------
A|----------------------|             |-------------------
E|----------------------|             |-------------------
  
  Do you think you can cope...      ...broken though i've never spoken

Repeat (riff 1)
I come undone.....

Verse 3
E|---------------
B|---------------
G|------8-10-----      played with (riff 2) 
D|-8-11----------
A|---------------
E|---------------  

Bridge -
        |=  same as before 
Chorus -

Verse 4
E|----8-10-9-8----
B|-11-------------    repeat 
G|----------------
D|----------------
A|----------------
E|----------------

  now i'm cryin....

Solo (Played with bridge at the background)

E|-----------------8^r6-------15r13--------------15r13------------
B|-8~~~~----------------8------------15~~~~(14)--------15~~~~~----
G|-------5(7)-8-9-------------------------------------------------
D|----------------------------------------------------------------
A|----------------------------------------------------------------
E|----------------------------------------------------------------

E|-15----13-----------------------18~~~~~---
B|----15----15-13-------13------------------
G|----------------15-12----15---------------        ~~~ (vibrate)
D|------------------------------------------        15r13 (release to 13)
A|------------------------------------------        ^ (bend)
E|------------------------------------------

Repeat chorus then end with riff 1 !!
thats all! quite simple huh? =)
Comments