Matchbox 20 - Longday Chords & Tabs

 

Longday Chords & Tabs

Matchbox 20 Chords & Tabs

Version: 2 Type: Bass Tab 0 ratings
1 star 2 stars 3 stars 4 stars 5 stars
comments

Longday Bass Tab

   
Bass Tab for Matchbox 20's song - Longday


Matchbox 20
longday
[ Tab from: http://www.guitartabs.cc/tabs/m/matchbox_20/longday_btab_ver_2.html ]
tune the Bass to :
D#( a very low D#),G#,C#,F#
The song goes :
Verse, Fast Verse, Slow Verse, Chorus, Verse, Chorus, Verse, Chorus, End
Verse :
-----------------------------------------------------
-----------------------------------------------------
------------0-------------3-------------------------
------3------------1------------3-------1------3-
-----------------------------------------------------
-----------------------------------------------------
------------0--------------3-----------------------
----3-------------1--------------------------------
Chorus :
----------------------------------------------------
----------------------------------------------------
------0------------3---------5--------------------
------------1---------------------------------------
----------------------------------------------------
----------------------------------------------------
------0------------3---------5--------------------
------------1---------------------------------------
End :
----------------------------------------------------
----------------------------------------------------
----------------------------------------------------
---7-----5-----1--------5------------------------
----------------------------------------------------
----------------------------------------------------
----------------------------------------------------
---7-----5-----1--------5------------------------
----------------------------------------------------
----------------------------------------------------
----------------------------------------------------
---7-----5-----1--------5------------------------

Copyright 1997
P. Cummings
faq_man@hotmail.com
Comments