Matchbox 20 - If Your Gone Acousitc Chords & Tabs

 

If Your Gone Acousitc Chords & Tabs

Matchbox 20 Chords & Tabs

Version: 1 Type: Tab 0 ratings
1 star 2 stars 3 stars 4 stars 5 stars
comments

If Your Gone Acousitc Tab

   
			     if you're gone - matchbox 20
-------------------------------------------------------------------------------
Tabbed by: Dannie Walker
Email: d_walker_@hotmail.com

Wanted to learn the acoustic version, couldn't find it, so i tabbed it myself: enjoy!
[ Tab from: http://www.guitartabs.cc/tabs/m/matchbox_20/if_your_gone_acousitc_tab.html ]
Tuning:Standard (Capo 2nd)
[intro]
e|---------------------------------------------------------------------------|
B|------3--1----------------------3--1---------------------------------------|
G|----0-------------------------0--------------------------------------------|
D|--0-----------0-------------0------------0---------------------------------|
A|------------2---0--3-------------------2---0--3----------------------------|
E|---------------------------------------------------------------------------|
i think ive already lost you, i think your already gone
e|---------------------------------------------------------------------------|
B|------3--1----------------------3--1---------------------------------------|
G|----0-------------------------0--------------------------------------------|
D|--0-----------0-------------0------------0---------------------------------|
A|------------2---0--3-------------------2---0--3----------------------------|
E|---------------------------------------------------------------------------|
i think im finally scared now, and you think im weak and i think your wrong
e|------------------------------------------------------------------------2--|
B|------3--1-------------------------------------------1----------------3----|
G|----0---------------------------------------------2----------------2-------|
D|--0-----------0---------------------------------2----------------0---------|
A|------------2---0--3--------------------------0----------------------------|
E|---------------------------------------------------------------------------|
i think your already leaving, feels like your hand is on the door
e|---------------------------------------------------------------------------|
B|------3--1----------------------3--1---------------------------------------|
G|----0-------------------------0--------------------------------------------|
D|--0-----------0-------------0------------0---------------------------------|
A|------------2---0--3-------------------2---0--3----------------------------|
E|---------------------------------------------------------------------------|
i thought this place was an empire, and now im relaxed but i cant be sure
e|------------------------------------------------------------------------2--|
B|------3--1-------------------------------------------1----------------3----|
G|----0---------------------------------------------2----------------2-------|
D|--0-----------0---------------------------------2----------------0---------|
A|------------2---0--3--------------------------0----------------------------|

                     Am                          D
and i think your so mean, and i think we should try
                 G                  C
i think that i need, this is my life and
              Am                 D
i think im scared, and i think too much
    F
i know whats wrong its a problem im dealing
[chorus]
         G                             C
if your gone, maybe its time to come home
             Am                     D
theres and awful lot of breathing room, but i can hardly move

(chorus and rest repeat)

| /  slide up
| \  slide down
| h  hammer-on
| p  pull-off
| ~  vibrato
| +  harmonic
| x  Mute note
===============================================================================
Comments