Matchbox 20 - Hang (intro) Chords & Tabs

 

Hang (intro) Chords & Tabs

Matchbox 20 Chords & Tabs

Version: 1 Type: Chords 0 ratings
1 star 2 stars 3 stars 4 stars 5 stars
comments

Hang (intro) Chords

   
#----------------------------------PLEASE NOTE---------------------------------#
#This file is the author's own work and represents their interpretation of the #
#song. You may only use this file for private study, scholarship, or research. #
#------------------------------------------------------------------------------#

Date: Mon,  1 Dec 97 14:00:40 Romance Standard Time
From: Don Kurelich 
Subject: Corrections: Hang by Matchbox 20

Band          : Matchbox 20
Song          : Hang
Album         : Yourself or Someone like you
Tuning        : Normal - No Capo
Transcribed by: Steven Batchelder
Corrected by  : Don Kurelich 
[ Tab from: http://www.guitartabs.cc/tabs/m/matchbox_20/hang_intro_crd.html ]
I'm improving on the basic transcription that SB did.  It was basicaly 
there, but some of the chords were wrong and I'm showing a few 
enhancements.  These are subtle changes in the basic chords and a 
change in strum.  The chord differences are noted below and change 
only the tone of what's being played.  The strum in the intro and first 
verse is using your fingers (i.e. no pick, either your thumb or first 
finger).  At the second verse he switches to a flat pick.

Chords:
     G*      G*      C*    CaddG     Em*     Em      D
E:|--3--   --3--   --3--   -----   --3--   -----   --2--
B:|--3--   -----   --3--   --1--   --3--   -----   --3--
G:|-----   -----   -----   -----   -----   -----   --2-
D:|-----   -----   --2--   --2--   --2--   --2--   -----
A:|--2--   --2--   --3--   --3--   --2--   --2--   -----
E:|--3--   --3--   -----   --3--   -----   -----   -----


(*With finger strum*)

Intro:  G* C* (play 2 times)





--------------------------------------------------------
Name    : Don Kurelich
Position: Design Services Manager Europe
Division: Mentor Consulting
Company : Mentor Graphics
E-mail  : Don Kurelich 
Date: 12/01/97
Time: 14:00:40
--------------------------------------------------------
Comments