Matchbox 20 - Girl Like That (intro) Chords & Tabs

 

Girl Like That (intro) Chords & Tabs

Matchbox 20 Chords & Tabs

Version: 1 Type: Chords 0 ratings
1 star 2 stars 3 stars 4 stars 5 stars
comments

Girl Like That (intro) Chords

   
#----------------------------------PLEASE NOTE---------------------------------#
#This file is the author's own work and represents their interpretation of the #
#song. You may only use this file for private study, scholarship, or research. #
#------------------------------------------------------------------------------#
#

Date: Wed, 03 Dec 1997 09:45:48 -0500
From: Brian Groulx 
Subject: CRD:m/matchbox_20/girl_like_that.crd

MatchBox 20 - "Girl Like That"
(Transcribed by Brian Groulx)

Intro:   D  C  G  C  (repeat twice)
[ Tab from: http://www.guitartabs.cc/tabs/m/matchbox_20/girl_like_that_intro_crd.html ]
e-----------------------------------------------------------
B-----------------------------------------------------------
G------77s9b--7--------77s9b--7---------7--9b--7------------
D--7-9-------------7-9--------------7-9------------8s9--7---
A-----------------------------------------------------------
E-----------------------------------------------------------

e-----------------------------------------------------------
B----------------------------------------7s8b---------------
G------77s9b--7--------77s9b--7---------------9--7----------
D--7-9-------------7-9--------------7-9------------8s9-7----
A-----------------------------------------------------------
E-----------------------------------------------------------

Any changes or additions, please e-mail Brian - bgroulx@mcbinch.com


Intro :  D  C  G  C  (repeat twice)
Comments