Matchbox 20 - Disease Chords & Tabs

 

Disease Chords & Tabs

Matchbox 20 Chords & Tabs

Version: 3 Type: Tab 0 ratings
1 star 2 stars 3 stars 4 stars 5 stars
comments

Disease Tab

Disease-Matchbox 20
Album:More Than You Think You Are
Tabbed by:arif
Email:mafia_s@hotmail.com

Tuning:eBGDAE

I'm not sure if it's accurate but try it out
Just as the first chorus ends play:
e|-------7-5-----------------------------------------------------------------|
B|---5h7-----7-5-3-5/7~------------------------------------------------------|
G|---------------------------------------------------------------------------|
D|---------------------------------------------------------------------------|
A|---------------------------------------------------------------------------|
E|---------------------------------------------------------------------------|
After each verse line in the second part
e|---7-5---------------------------------------------------------------------|
B|-------7-5-3-5/7-0~--------------------------------------------------------|
G|---------------------------------------------------------------------------|
D|---------------------------------------------------------------------------|
A|---------------------------------------------------------------------------|
E|---------------------------------------------------------------------------|
[ Tab from: http://www.guitartabs.cc/tabs/m/matchbox_20/disease_tab_ver_3.html ]
e|---7-5---------------------------------------------------------------------|
B|-------7-5-3-5/7-3b~-------------------------------------------------------|
G|---------------------------------------------------------------------------|
D|---------------------------------------------------------------------------|
A|---------------------------------------------------------------------------|
E|---------------------------------------------------------------------------|

e|---7-5---------------------------------------------------------------------|
B|-------7-5-3-5/7-5b~-------------------------------------------------------|
G|---------------------------------------------------------------------------|
D|---------------------------------------------------------------------------|
A|---------------------------------------------------------------------------|
E|---------------------------------------------------------------------------|

e|---7-5---------------------------------------------------------------------|
B|-------7-5-3-5/7-6b~-------------------------------------------------------|
G|---------------------------------------------------------------------------|
D|---------------------------------------------------------------------------|
A|---------------------------------------------------------------------------|
E|---------------------------------------------------------------------------|

During the pre-chorus, there is a little riff:(played 3x)
e|---10-9-7--10-9-7-|---------------------------------------------------------|
B|------------------|---------------------------------------------------------|
G|------------------|---------------------------------------------------------|
D|------------------|---------------------------------------------------------|
A|------------------|---------------------------------------------------------|
E|------------------|---------------------------------------------------------|
Comments