Matchbox 20 - Cold Chords & Tabs

 

Cold Chords & Tabs

Matchbox 20 Chords & Tabs

Version: 1 Type: Tab 0 ratings
1 star 2 stars 3 stars 4 stars 5 stars
comments

Cold Tab

Cold - Matchbox 20	
Tabbed by: Jin Solomon	
tuning: dadgbe

intro:
Guitar1 (Lead)
e------------------------------------------------------------------
b------------------------------------------------------------------
g----------------------------------------------------5b-5b-5b------
d--5h7-5-7-7-5h7-5h7-----5h7-----5h7-5-7-7-5h7-----5---------------
a--------------------5h7-----------------------5h7-----------------
d------------------------------------------------------------------
Guitar2 (Rhythm)
e------------------------------------------------------------------
b------------------------(repeat throughout intro)-----------------
g------------------------------------------------------------------
d------------------------------------------------------------------
a-----------5-7-5-7-7-5-7------------------------------------------
e-----------5-7-5-7-7-5-7------------------------------------------
Guitar1 (Lead)
e------------------------------------------------------------------
b------------------------------------------------------------------
g----------------------------------------------------5-------------
d--5h7-5-7-7-5h7-5h7-----5h7-----5h7-5-7-7-5h7-----5-5-------------
a--------------------5h7-----------------------5h7-----------------
d------------------------------------------------------------------

verse:
Guitar2 (Rhythm)
e------------------------------------------------------------------
b------------------------------------------------------------------
g------------------------------(Repeat 3 times)--------------------
d------------------------------------------------------------------
a-----------5-7-5-7-7-5-7------------------------------------------
e-----------5-7-5-7-7-5-7------------------------------------------
            p.m. p.m. p.m.
Guitar1 (Lead)
e-----------------------8----8-------------------------------------
b-----------------------8----8-------------------------------------
g-----------------------10---9-------------------------------------
d----------------------------10--10-9-7----------------------------
a------------------------------------------------------------------
d------------------------------------------------------------------
Guitar2 (Rhythm)
e------------------------------------------------------------------
b------------------------------------------------------------------
g------------------------------(Repeat 3 times)--------------------
d------------------------------------------------------------------
a-----------5-7-5-7-7-5-7------------------------------------------
e-----------5-7-5-7-7-5-7------------------------------------------
            p.m. p.m. p.m.
[ Tab from: http://www.guitartabs.cc/tabs/m/matchbox_20/cold_tab.html ]
Pre-chorus:
Guitar2 (Rhythm)
e------------------------------------------------------------------
b------------------------------------------------------------------
g------------------------------(Repeat 3 times)--------------------
d------------------------------------------------------------------
a-----------5-7-5-7-7-5-7------------------------------------------
e-----------5-7-5-7-7-5-7------------------------------------------
           (w/o palm mute)
Guitar1 (Lead)
e-----------------------8------------------------------------------
b-----------------------8------------------------------------------
g-----------------------10-----------------------------------------
d-----(with some unknown palm muted harmonics strummed before this)
a------------------------------------------------------------------
d------------------------------------------------------------------

Chorus:
Guitar2 (Rhythm)
e------------------------------------------------------------------
b------------------------------------------------------------------
g-------12------7------9------5s7----7s9----9s12-------------------
d-------10------5------7------3s5----5s7----7s10-------------------
a-------10------5------7-------------------------------------------
d-------10------5------7----3------5------7------------------------
Guitar2 (Rhythm)
e------------------------------------------------------------------
b------------------------------------------------------------------
g-------12------7--4---9------5s7----7s9----9s12-------------------
d-------10------5--2---7------3s5----5s7----7s10-------------------
a-------10------5--2---7-------------------------------------------
d-------10------5--2---7----3------5------7------------------------
Guitar1 (Lead)
e------------------------------------------------------------------
b------------------------------------------------------------------
g--------------------------5b-5b-5b--------------------------------
d------5h7-5-7-7-5h7-----5-----------------------------------------
a--------------------5h7-------------------------------------------
d------------------------------------------------------------------

Chorus 2, after the guitar solo (Transposed):
Guitar2 (Rhythm) 
e------------------------------------------------------------------
b------------------------------------------------------------------
g-------14------9------11-----7s9----9s11---11s14------------------
d-------12------7------9------5s7----7s9----9s12-------------------
a-------12------7------9-------------------------------------------
d-------12------7------9----5------7------9------------------------
Guitar2 (Rhythm) 
e------------------------------------------------------------------
b------------------------------------------------------------------
g-------14------9--6---11-----7s9----9s11---11s14------------------
d-------12------7--4---9------5s7----7s9----9s12-------------------
a-------12------7--4---9-------------------------------------------
d-------12------7--4---9----5------7------9------------------------

Outro:
Guitar1 (Lead)
e------------------------------------------------------------------
b------------------------------------------------------------------
g------------------------------------------------------------------
d--7h9-7-9-9-7h9-7h9-7h9-7h9-7-9-9-7h9-----------------------------
a--(i dont know exactly how many times this is done, just figure it out for yourself)
d------------------------------------------------------------------
Comments