Matchbox 20 - Busted Chords & Tabs

 

Matchbox 20 Chords & Tabs

Version: 1 Type: Bass Tab 0 ratings
1 star 2 stars 3 stars 4 stars 5 stars
comments

Busted Bass Tab

   
BUSTED--Matchbox 20
Tabbed by reynard75@hotmail.com

Riff "A"

G---------------
D---------------
A---------5-2-3-
E---0-2-3-------

Riff "B"

G-----------------
D-----------------
A-----7-5-7-------
E-0-0-------3-3-2-

Riff "C"

G-------------------
D-------------------
A-33333333-55555555-
E-------------------

Riff "D"

G----------------------------------------
D-222-22-2-555-55-5----------------------
A-------------------555-55-5-33-22-------
E--------------------------------55-33---

[ Tab from: http://www.guitartabs.cc/tabs/m/matchbox_20/busted_btab.html ]
INTRO:   Ax2
VERSE I: Bx4, C
         Bx6, C
         Bx2, C
CHORUS:  Dx2
         Ax2
VERSEII: Bx4, C
         Bx2, C
CHORUS:  Dx4
         Ax2
BRIDGE:  Pedal on C (a3) from 1st "...watched it" until "well,..."
         Pedal on E (d2) from "well..." to "...watched it"
         Pedal on C (a3) from "...watched it" until "well,...", GO TO:

G-------------------------------------
D-------------------------------------
A-------0-2-3--0-3-5-----------5--3-5-
E-0-2-3-----------------0-2-3---------

THEN:    Dx4
         Ax2
         Sustained open E (e0)

Comments