Matchbox 20 - Bent Chords & Tabs

 

Bent Chords & Tabs

Matchbox 20 Chords & Tabs

Version: 2 Type: Tab 0 ratings
1 star 2 stars 3 stars 4 stars 5 stars
comments

Bent Tab

name: Clayton Mitchell

artist: Matchbox Twenty

SongTitle: Bent

Tabs: 
intro
							
     	------------------------------------------------------
	------------------------------------------------------
	------------------------------------------------------
	-------7h9---9b/\---9b/\--7--6------------------------
	---7h9-------------------------7---9------------------
	---------------------------------9--------------------


	------------------------------------------------------
	------------------------------------------------------
	------------------------------------------------------
	-------7h9---9b/\---9b/\--7--6-11-11------------------
	---7h9--------------------------9--9------------------
	--------------------------------9--9------------------

verse
					
	---9---7---9--9--x---9--9--x---9---7------------------
	--10---7--10-10--x--10-10--x--10---7------------------
	---x---9---x--x--x---x--x--x---x---9------------------
	--11---7--11-11--x--11-11--x--11---7--11-11-----------
	---9---7---9--9--x---9--9--x---9---7---9--9-----------
	---9---7---9--9--x---9--9--x---9---7---9--9-----------

[ Tab from: http://www.guitartabs.cc/tabs/m/matchbox_20/bent_tab_ver_2.html ]
	---9---7---9--9--x---9--9--x---9---7--7---------------
	--10---7--10-10--x--10-10--x--10---7------------------
	---x---9---x--x--x---x--x--x---x---9----9-------------
	--11---7--11-11--x--11-11--x--11---7--------7---------
	---9---7---9--9--x---9--9--x---9---7------7-----------
	---9---7---9--9--x---9--9--x---9---7------------------

pre chorus

	


	---6--4--2--/------------------------------------------
	---6--4--2--/------------------------------------------
	---6--4--2--/------------------------------------------
	---8--5--4--/---9999-----------------------------------
	---8--5--4--/---9999-------5-7-------------------------
	---6--4--2--/---7777---5-7-----------------------------


I'm not sure about the chorus I just hit 12 on high e with the song 
then
go back to A-----5-7-----   and hit 12 some more??????
	   E-5-7--------- 

the little lick at the end starts like this


	-------------------------------------------------------
	-------------------------------------------------------
	---13-13-13h14p13--------------------------------------
	------------------16-14-12-16-14-12--------------------
	-------------------------------------------------------
	-------------------------------------------------------

Comments