Matchbox 20 - Bent Chords & Tabs

 

Matchbox 20 Chords & Tabs

Version: 1 Type: Tab 1 rating
1 star 2 stars 3 stars 4 stars 5 stars
comments

Bent Tab

Sorry, this isn't the whole song. It's just the intro part, But it's
better than nothing.


----------------------------------------------------------------
----------------------------------------------------------------
---2b------------2-4------6/4------6/4-----2------1-------------
-------------2-4-------------------------------------2-----3/4--
-----------4--------------------------------------------4-------
----------------------------------------------------------------



[ Tab from: http://www.guitartabs.cc/tabs/m/matchbox_20/bent_tab.html ]
----------------------------------------------------------------
----------------------------------------------------------------
---------2-4--------6/4------6/4-----2-----1--------------------
-----2-4--------------------------------------------------------
---4------------------------------------------------------------
----------------------------------------------------------------


Then it starts when with the vocals.

If you find a mistake or find something that sounds better, please 
email me at sjb@fuse.net.
Comments