Matchbox 20 - Bent Chords & Tabs

 

Matchbox 20 Chords & Tabs

Version: 1 Type: Bass Tab 0 ratings
1 star 2 stars 3 stars 4 stars 5 stars
comments

Bent Bass Tab

   
Matchbox 20 - Bent
tab by D.Scott
 
Bear with me, this is a complex song to tab, and i've tried to make it as 
accurate as possible... 

Drop D tuning (D,A,D,G)

Intro:
 rest 1 bar then:

                 repeat 6x
G:|----------------------|---------------------|-------------|
D:|---------------------*|---------------------|-------------|
A:|---------------------*|---------------------|------r-r-r--|
D:|-4444-4444-4444-4444--|-4444-4444-4444-0-2--|-4-4---------|

Verse:                                
                                       
G:|--------------|--------------|-------------|--------------|
D:|--------------|--------------|-------------|--------------|
A:|-2-222--X2-X2-|--------------|-------------|--------------|
D:|--------------|-2-222--X2-X2-|-44444-X4-X4-|-44444-X4-X4--|


G:|-------------|-----------------|----------------|
D:|-------------|-----------------|----------------|
A:|-2-222-X2-X2-|-----------------|-------r-r-r----|
D:|-------------|-2-222-X2-X2-0-2-|-4-4------------|


G:|-------------|-------------|---------|-------------|
D:|-------------|-------------|---------|-------------|
A:|-2-222-X2 X2-|-------------|-------r-|-------------|
D:|-------------|-2-222-X2-X2-|-44444---|-44444-X4-X4-|



G:|-------------|-----------------|
D:|-------------|-----------------|
A:|-2-222-X2-X2-|-----------------|
D:|-------------|-2-222-X2-X2-024-|

Pre-Chorus:
G:|-----------------|-----------------|-----------------|
D:|-----------------|-----------------|---------------2-|
A:|-----------------|---------------2-|-2-2-2-0-2-4-5---|
D:|-7-7-7-7-6-6-6-6-|-4-4-4-2-4-6-7---|-----------------|

Chorus:                  
G:|-----------------|-----------------|-----------------|
D:|-----2-----------|-----------------|-----------------|
A:|-0-0---0-0-------|-----------------|-----------------|
D:|-----------0-2-4-|-4-4-4-4-4-4-4-2-|-0-0-0-0-0-4-6-2-|

[ Tab from: http://www.guitartabs.cc/tabs/m/matchbox_20/bent_btab.html ]
G:|-----------------|-----------------|-----------------|
D:|---------------2-|-----2-----------|-----------------|
A:|-------0-2-4-5---|-0-0---0-0-------|-----------------|
D:|-2-2-2-----------|-----------0-2-4-|-4-4-4-4-4-4-4-2-|


G:|-----------------|---------------|
D:|-----------------|---------------|
A:|-----------------|---------------|
D:|-0-0-0-0-0-0-0-0-|-0-0-0-0-7--6--|

end of 1st Chorus:  end of 2nd chorus (let ring):
G:|---------------||-------------------|                                                                           
D:|---------------||-------------------|
A:|-----r-r-r-----||-------------------|   
D:|-4-4-----------||-4-----------------|

verse 2 (same as 1st verse, only shorter and with improv)
Pre-Chorus
chorus  (w/second ending)
                     
bridge:          play 4x w/improv.   
G:|--------------|---------------|-----------------|----------------|
D:|*-------------|--------------*|-----------------|----------------|
A:|*-----------5-|-(5)----------*|-6-6-6-6-6-6-6-6-|-7-7-7-7-7-7-7--|
D:|-4------------|---------------|-----------------|----------------|


                      play 8x 
G:|--------------------------|
D:|-------------------------*|
A:|-------------------------*|
D:|-2p444-44---2p444-44------|

Pre-chorus:
G:|-----------------|-----------------|-----------------|
D:|-----------------|-----------------|---------------2-|
A:|-----------------|---------------2-|-2-2-2-0-2-4-5---|
D:|-7-7-7-7-6-6-6-6-|-4-4-4-2-4-6-7---|-----------------|

Chorus:                  
G:|-----------------|-----------------|------------------|
D:|-----2-----------|-----------------|*-----------------|
A:|-0-0---0-0-------|-----------------|*-----------------|
D:|-----------0-2-4-|-4-4-4-4-4-4-4-2-|--0-0-0-0-0-4-6-2-|

                                                 repeat 2x
G:|-----------------|-----------------|------------------|
D:|---------------2-|-----2-----------|-----------------*|
A:|-------0-2-4-5---|-0-0---0-0-------|-----------------*|
D:|-2-2-2-----------|-----------0-2-4-|-4-4-4-4-4-4-4-2--|


Outro:         repeat until fade.......
G:|--------------------|
D:|*------------------*|
A:|*------------------*|
D:|-0000-00--0000-00---|

Comments