Matchbox 20 - 3 Am Chords & Tabs

 

3 Am Chords & Tabs

Matchbox 20 Chords & Tabs

Version: 3 Type: Tab 0 ratings
1 star 2 stars 3 stars 4 stars 5 stars
comments

3 Am Tab

Intro:
|--332----------------333-----3--------|
|--332----------------333------3-------|
|--000---------0------000-------2------|
|-0002------0h2------0002--------------|
|-2223---------------2223--------------|
|-333x---------------333x--------------|

Verse:
|-333-222222-----------0h2-0------0-----------|
|-333-222222----------------3------3----------|
|-000-000000---------2----------0---0---0-----|
|-000-222222------0h2----------2-----0h2------|
|-222-333333---0h2------------3---------------|
|-333-xxxxxx----------------------------------|

|-333-222222-----------0h2-0------0-----------|
|-333-222222----------------3------3----------|
|-000-000000---------2----------0---0---0-----|
|-000-222222------0h2----------2-----0h2------|
|-222-333333---0h2------------3---------------|
|-333-xxxxxx----------------------------------|
[ Tab from: http://www.guitartabs.cc/tabs/m/matchbox_20/3_am_tab_ver_3.html ]
|-333-222222-----------0h2-0------0-----------|
|-333-222222----------------3------3----------|
|-000-000000---------2----------0---0---0-----|
|-000-222222------0h2----------2-----0h2------|
|-222-333333---0h2------------3---------------|
|-333-xxxxxx----------------------------------|

Bridge:
|-333-222222-----------0h2-0------0------2h3-2-------0---------|
|-333-222222----------------3------3----3-----3-------3--------|
|-000-000000---------2----------0---0--2-------2---0---0---0---|
|-000-222222------0h2----------2------0-----------2-----0h2----|
|-222-333333---0h2------------3------------------3-------------|
|-333-xxxxxx---------------------------------------------------|

Chorus:
|-7-777--5--7-77--55-----|  (Repeat 2 more times)
|-8-888--7--5-55--77-----|
|-7-777--7--5-55--77-----|
|------------------------|
|------------------------|
|------------------------|

|-7-777--5--3~~~~~~~~~~~----------|
|-8-888--7--3~~~~~~~~~~~----------|
|-9-999--7--0~~~~~~~~~~~------0---|
|-----------2~~~~~~~~~~~---0h2----|
|-----------3~~~~~~~~~~~----------|
|-----------x---------------------|

I havent figured out the rest but when i do ill be sure to post it....or just email me if you want it!
sk8boardingnotacrime@ctc.net
Comments