Matchbox 20 - 3 Am Acoustic Chords & Tabs

 

Matchbox 20 Chords & Tabs

Version: 2 Type: Tab 0 ratings
1 star 2 stars 3 stars 4 stars 5 stars
comments

3 Am Acoustic Tab

:::”””;;;;”””put capo on the 1st fret”””;;;;”””:::


|--3---3-3--------------3---3-3----3------------------|
|--3---3-3--------------3---3-3-------3---------------|
|--0---0-0---------0----0---0-0-----------0-----------|
|0-0-0-0-0h2----------0-0-0-0-0h2---------------------|
|2---2---3-----0h2----2---2---3-----------------------|
|3---3----------------3---3---------------------------|


|3-33--3-33-3-33-3-33-3-33-3-33-3-33-3-33-3-33-3-33-3-33|
|3-33--3-33-3-33-3-33-3-33-3-33-3-33-3-33-3-33-3-33-3-33|
|0-00--0-00-0-00-0-00-0-00-0-00-0-00-0-00-0-00-0-00-0-00|
|0-00--2-22-2-22-0-00-2-22-2-22-0-00-2-22-2-22-0-00-2-22|
|2-22--3-33-3-33-2-22-3-33-3-33-2-22-3-33-3-33-2-22-3-33|
|3-33------------3-33-----------3-33-----------3-33-----|

|------------0h2--0---------0------------------|
|-------------------3---------3----------------|
|----------2--------------0-----0-----0--------|
|----0h2-0--------------2---------0h2----------|
|0h2------------------3------------------------|
|----------------------------------------------|


|3-33-3-33-3-33-3-33-3-33-----|
|3-33-3-33-3-33-3-33-3-33-----|
|0-00-0-00-0-00-0-00-0-00-----|
|0-00-2-22-2-22-0-00-2-22-----|
|2-22-3-33-3-33-2-22-3-33-----|
|3-33-----------3-33----------|

|------------0h2--0---------0------------------|
|-------------------3---------3----------------|
|----------2--------------0-----0-----0--------|
|----0h2-0--------------2---------0h2----------|
|0h2------------------3------------------------|
|----------------------------------------------|


|3-33-3-33-3-33-3-33-3-33-----|
|3-33-3-33-3-33-3-33-3-33-----|
|0-00-0-00-0-00-0-00-0-00-----|
|0-00-2-22-2-22-0-00-2-22-----|
|2-22-3-33-3-33-2-22-3-33-----|
|3-33-----------3-33----------|

|------------0h2--0---------0------------------|
|-------------------3---------3----------------|
|----------2--------------0-----0-----0--------|
|----0h2-0--------------2---------0h2----------|
|0h2------------------3------------------------|
|----------------------------------------------|

 

|3-33-3-33-3-33-3-33-3-33-----|
|3-33-3-33-3-33-3-33-3-33-----|
|0-00-0-00-0-00-0-00-0-00-----|
|0-00-2-22-2-22-0-00-2-22-----|
|2-22-3-33-3-33-2-22-3-33-----|
|3-33-----------3-33----------|

|------------0h2--0---------0-----------2h3-2-----------0------------------|
|-------------------3---------3-------3-------3-----------3----------------|
|----------2--------------0-----0---2-----------2-----0-----0-----0--------|
|----0h2-0--------------2---------0-----------------2---------0h2----------|
|0h2------------------3---------------------------3------------------------|
|--------------------------------------------------------------------------|

|3-3--2-3--3--3-2-2-2--|\
|3-3--3-3--3--3-3-3-3--| \
|0-0--2-0--0--0-2-2-2--|  \2x
|0-0--0-2--2--2-0-0-0--|  /
|2-2--0-3--3--3-0-0-0--| / 
|3-3-------------------|/
                        

|7-7-77-5--3~----------||7-7-77-5--3~--3----------|
|8-8-88-7--3~----------||8-8-88-7--3~----3--------|
|9-9-99-7--0~-------0--||9-9-99-7--0~----------0--|
|----------2~---0h2----||----------2~------0h2----|
|----------3~----------||----------3~-------------|
|----------------------||-------------------------|

[ Tab from: http://www.guitartabs.cc/tabs/m/matchbox_20/3_am_acoustic_tab_ver_2.html ]
|----3--------------3--------------3----------------------|
|-------3--------------3--------------3-------------------|
|--0----------0---0----------0---0----------0-------------|
|---------0h2------------0h2------------0h2---------------|
|3--------------3--------------3--------------------------|
|---------------------------------------------------------|

|--3---3-3----3------3---3-3---3-----3---3-3---3-----3---3-3---------------|
|--3---3-3----3-0----3---3-3---3-0---3---3-3---3-0---3---3-3---------------|
|0-0-0-0-0----0-0-0--0-0-0-0---0-0-0-0-0-0-0---0-0-0-0-0-0-0---------------|
|0-0-0---0h2--2-0-0--0-0---0h2-2-0-0-0-0---0h2-2-0-0-0-0---0h2-------------|
|2---2---3----3---2----2---3---3---2---2---3---3---2---2---3---------------|
|3---3------------3----3-----------3---3-----------3---3-------------------|

|------------0h2--0---------0------------------|
|-------------------3---------3----------------|
|----------2--------------0-----0-----0--------|
|----0h2-0--------------2---------0h2----------|
|0h2------------------3------------------------|
|----------------------------------------------|


|3-33-3-33-3-33-3-33-3-33-----|
|3-33-3-33-3-33-3-33-3-33-----|
|0-00-0-00-0-00-0-00-0-00-----|
|0-00-2-22-2-22-0-00-2-22-----|
|2-22-3-33-3-33-2-22-3-33-----|
|3-33-----------3-33----------|

|------------0h2--0---------0------------------|
|-------------------3---------3----------------|
|----------2--------------0-----0-----0--------|
|----0h2-0--------------2---------0h2----------|
|0h2------------------3------------------------|
|----------------------------------------------|


|3-33-3-33-3-33-3-33-3-33-----|
|3-33-3-33-3-33-3-33-3-33-----|
|0-00-0-00-0-00-0-00-0-00-----|
|0-00-2-22-2-22-0-00-2-22-----|
|2-22-3-33-3-33-2-22-3-33-----|
|3-33-----------3-33----------|

        Harm<---->
|-----------------|
|----------7------|
|------------7----|
|----0h2-0-----7--|
|0h2--------------|
|-----------------|


|3-33-3-33-3-33-3-33-3-33-3-33|
|3-33-3-33-3-33-3-33-3-33-3-33|
|0-00-0-00-0-00-0-00-0-00-0-00|
|0-00-2-22-2-22-0-00-2-22-2-22|
|2-22-3-33-3-33-2-22-3-33-3-33|
|3-33-----------3-33----------|


|2--2--2--2-2----|
|3--3--3--3-3----|
|2--2--2--2-2----|
|0--0--0--0-0----|
|----------------|
|----------------|


|0-0-0-0-0-0-0-0-0-0-0-0--00000000---------------|
|1-1-1-1-1-1-1-1-1-1-1-1--11111111---------------|
|0-0-0-0-0-0-0-0-0-0-0-0--00000000---------------|
|2-2-2-2-2-2-2-2-2-2-2-2--22222222---------------|
|3-3-3-3-3-3-3-3-3-3-3-3--33333333---------------|
|------------------------------------------------|


|7-7-77-5--3-3-3-3-3333-3-3-3-3-3-33-2-3--3-2--2-3-3-33-2-3-3-3-2-2-|
|8-8-88-7--3-3-3-3-3333-3-3-3-3-3-33-3-3--3-3--3-3-3-33-3-3-3-3-3-3-|
|9-9-99-7--0-0-0-0-0000-0-0-0-0-0-00-2-0--0-2--2-0-0-00-2-0-0-0-2-2-|
|----------2-2-2-2-2222-2-2-2-0-0-00-0-2--2-0--0-0-0-00-0-2-2-2-0-0-|
|----------3-3-3-3-3333-3-3-3-2-2-22-0-3--3-0--0-2-2-22-0-3-3-3-0-0-|
|-----------------------------3-3-33-------------3-3-33-------------|


|3-3-33-2-3--3--3-2-2-0-0-00-2--3~---------------|
|3-3-33-3-3--3--3-3-3-0-0-00-3--3~---------------|
|0-0-00-2-0--0--0-2-2-0-0-00-2--0~---------------|
|0-0-00-0-2--2--2-0-0-2-2-22-0--0~---------------|
|2-2-22-0-3--3--3-0-0-2-2-22-0--3~---------------|
|3-3-33---------------0-0-00---------------------|
Comments