Matchbook Romance - Tiger Lily Chords & Tabs

 

Tiger Lily Chords & Tabs

Matchbook Romance Chords & Tabs

Version: 4 Type: Tab 0 ratings
1 star 2 stars 3 stars 4 stars 5 stars
comments

Tiger Lily Tab

   
(Verse)

E-----------3------------------------3-------------------3-|
B-----------3------------------------3-------------------3-|
G-----------0------------------------0-------------------0-|
D-----------0------------------------2-------------------2-|
A-----------2------------------------3-------------------2-|
E-----------3--------------------------------------------0-|

            G                        C                   Em
We drive tonight, and you are by my side. We're talking about our lives,

E-----------3----------------3--------------------3--|
B-----------3----------------3--------------------3--|
G-----------0----------------2--------------------0--|
D-----------2----------------0--------------------0--|
A-----------3----------------0--------------------2--|
E----------------------------2--------------------3--|

            C                D                    G
Like we've known eachother forever and time flies by.

E------------------------3---------------------3---------|
B------------------------3---------------------3---------|
G------------------------0---------------------0---------|
D------------------------2---------------------2---------|
A------------------------3---------------------2---------|
E----------------------------------------------0---------|

                         C                     Em
With the sound of your voice, its close to paradise,

E--------3----------3--------|
B--------3----------3--------|
G--------0----------2--------|
D--------2----------0--------|
A--------3----------0--------|
E-------------------2--------|

         C          D
with the end surely near

E------3-------------3----------------3-------------|
B------3-------------3----------------3-------------|
G------0-------------0----------------0-------------|
D------0-------------2----------------2-------------|
A------2-------------3----------------2-------------|
E------3------------------------------0-------------|

       G             C                Em
And if I could only stop the car and hold on to you,

E----------3-------------------3----|
B----------3-------------------3----|
G----------0-------------------2----|
D----------2-------------------0----|
A----------3-------------------0----|
E------------------------------2----|

           C                   D
and never let go, I'd never let go.

E-------3--------------3------------------3-----------------|
B-------3--------------3------------------3-----------------|
G-------0--------------0------------------0-----------------|
D-------0--------------2------------------2-----------------|
A-------2--------------3------------------2-----------------|
E-------3---------------------------------0-----------------|

        G              C                  Em
As we round the corner to your house you turn to me and said


E---------3-----------------------------|
B---------3-----------------------------|
G---------0-----------------------------|
D---------2-----------------------------|
A---------3-----------------------------|
E---------------------------------------|

          C
I'll be going through withdrawal of you

E--------3-----------------------|
B--------3-----------------------|
G--------2-----------------------|
D--------0-----------------------|
A--------0-----------------------|
E--------2-----------------------|

         D
for this one night we have spent

E------3-------------------3-----------------3------------------------|
B------3-------------------3-----------------3------------------------|
G------0-------------------2-----------------0------------------------|
D------0-------------------0-----------------2------------------------|
A------2-------------------0-----------------2------------------------|
E------3-------------------2-----------------0------------------------|

       G                   D                 Em
And I want to speak these words but I guess I'll just bite my tongue

E-----3-----------------------------3-------------------------|
B-----3-----------------------------3-------------------------|
G-----0-----------------------------2-------------------------|
D-----2-----------------------------0-------------------------|
A-----3-----------------------------0-------------------------|
E-----------------------------------2-------------------------|

      C                             D
And accept someday somehow, as the words that we'll hang from
[ Tab from: http://www.guitartabs.cc/tabs/m/matchbook_romance/tiger_lily_tab_ver_4.html ]
E--3---3-----------------3-------------------|
B--3---3-----------------3-------------------|
G--0---2-----------------0-------------------|
D--0---0-----------------2-------------------|
A--2---0-----------------2-------------------|
E--3---2-----------------0-------------------|

(Chorus)

   G   D                 Em
And I,    I don't wanna speak these words,

E-----3-----------------3---------------------|
B-----3-----------------3---------------------|
G-----0-----------------2---------------------|
D-----2-----------------0---------------------|
A-----3-----------------0---------------------|
E-----------------------2---------------------|

      C                 D
cause I, I don't wanna make things any worse

E--3---3-----------------3-------------------|
B--3---3-----------------3-------------------|
G--0---2-----------------0-------------------|
D--0---0-----------------2-------------------|
A--2---0-----------------2-------------------|
E--3---2-----------------0-------------------|

   G   D                 Em
And I,    I don't wanna speak these words,

E-----3-----------------3----------------------|
B-----3-----------------3----------------------|
G-----0-----------------2----------------------|
D-----2-----------------0----------------------|
A-----3-----------------0----------------------|
E-----------------------2----------------------|

      C                 D
cause I, I don't wanna make things any worse

E-3------------3--------------3--|
B-3------------3--------------3--|
G-0------------2--------------0--|
D-2------------0--------------0--|
A-3------------0--------------2--|
E--------------2--------------3--|

(Bridge)

  C            D              G
__Why does tonight have to end?

E-------------3-------------------3----------------------------|
B-------------3-------------------3----------------------------|
G-------------2-------------------0----------------------------|
D-------------0-------------------2----------------------------|
A-------------0-------------------2----------------------------|
E-------------2-------------------0----------------------------|

              D                   Em
Why don't we hit the start, and pause it at our favorite parts

E-3--------------3---------3-------------3------------3------------------|
B-3--------------3---------3-------------3------------3------------------|
G-0--------------2---------0-------------2------------0------------------|
D-2--------------0---------0-------------0------------2------------------|
A-3--------------0---------2-------------0------------2------------------|
E----------------2---------3-------------2------------0------------------|

  C              D         G             D            Em
__We'll skip the goodbyes.   If I had it my way, I'd turn the car around

E----------3-----------3------|
B----------3-----------3------|
G----------0-----------2------|
D----------2-----------0------|
A----------3-----------0------|
E----------------------2------|

           C	       D
And runaway, just you and I.

E--3---3-----------------3-------------------|
B--3---3-----------------3-------------------|
G--0---2-----------------0-------------------|
D--0---0-----------------2-------------------|
A--2---0-----------------2-------------------|
E--3---2-----------------0-------------------|

(Chorus)

   G   D                 Em
And I,    I don't wanna speak these words,

E-----3-----------------3---------------------|
B-----3-----------------3---------------------|
G-----0-----------------2---------------------|
D-----2-----------------0---------------------|
A-----3-----------------0---------------------|
E-----------------------2---------------------|

      C                 D
cause I, I don't wanna make things any worse

E--3---3-----------------3-------------------|
B--3---3-----------------3-------------------|
G--0---2-----------------0-------------------|
D--0---0-----------------2-------------------|
A--2---0-----------------2-------------------|
E--3---2-----------------0-------------------|

   G   D                 Em
And I,    I don't wanna speak these words,

E-----3-----------------3----------------------|
B-----3-----------------3----------------------|
G-----0-----------------2----------------------|
D-----2-----------------0----------------------|
A-----3-----------------0----------------------|
E-----------------------2----------------------|

      C                 D
cause I, I don't wanna make things any worse

~~~~~~~~~~~~~~~~~~~~~~~~~~~~~~~~~~~~~~~~~~~~~~~~~~~~~~~~~~~~~~~~~

Brought to you by Ziggy (MonkeySquee)
Any comments then E-mail me @ Squeemymonkie@yahoo.com
Comments