Matchbook Romance - Monsters Chords & Tabs

 

Monsters Chords & Tabs

Matchbook Romance Chords & Tabs

Version: 3 Type: Tab

Monsters Tab

   
Artist: Matchbook Romance
Song: Monsters
Album: Voices

Tabbed by Yaridovich60
Email: Yaridovich60@hotmail.com

Tuning: Both guitar half a step down : Eb Ab Db Gb Bb Eb


Intro and verse

Guitar 1 (crazy reverb effect)  Repeat.

e|-14----------14----------14----------13/14/15/17------------------|
B|-------13----------13----------13---------------------------------|
G|----12----12----12----12----12----12------------------------------|
D|------------------------------------------------------------------|
A|------------------------------------------------------------------|
E|------------------------------------------------------------------|

Guitar 2 (/w distortion.)  Starts later.   Repeat.

e|------------------------------------------------------------------|
B|------------------------------------------------------------------|
G|------------------------------------------------------------------|
D|------------------------------------------------------------------|
A|-2/5---2/7---2/8---2/9--------------------------------------------|
E|------------------------------------------------------------------|



Chorus

Both Guitar
e|------------------------------------------------------------------|
B|------------------------------------------------------------------|
G|-4>------7>-------------------------------------------------------|
D|-4>--5>--7>--4>--5>--2>-------------------------------------------| x2
A|-2>--5>--5>--4>--5>--2>-------------------------------------------|
E|-----3>------2>--3>--0>-------------------------------------------|

Verse

Guitar 1 repeat riff.  Guitar 2 repeats slides.

Chorus Again.


Post-Chorus

Guitar 1
e|------------------------------------------------------------------|
B|------------------------------------------------------------------|
G|-4-x-4-x-4444-----------------------------------------------------|
D|-x-x-x-x-xxxx-X3------4-2-0-2-0-----------------------------------|
A|-2-x-2-x-2222-------------------4---------------------------------|
E|----------------------------------1-------------------------------|
                                    >full bend
Guitar 2
e|------------------------------------------------------------------|
B|------------------------------------------------------------------|
G|-4-x-4-x-4444-----------------------------------------------------|
D|-4-x-4-x-4444-X3--------------------------------------------------|
A|-2-x-2-x-2222-----------------------------------------------------|
E|------------------------------------------------------------------|



Pre-Solo

Guitar 1 plays riff 1


guitar 2 (2:15)

e|------------------------------------------------------------------|
B|------------------------------------------------------------------|
G|-/4~-3~----------------/4~-/7/6~-/9/7~-/11/4~-3~------------------|
D|--------2/5~-2/5/2~-0~--------------------------------------------|
A|------------------------------------------------------------------|
E|------------------------------------------------------------------|

e|------------------------------------------------------------------|
B|-12-0-12-0-12-0-12-0----------------------------------------------|
G|---------------------12-0-12-0-11-0-11----------------------------| x3
D|------------------------------------------------------------------|
A|------------------------------------------------------------------|
E|------------------------------------------------------------------|

e|------------------------------------------------------------------|
B|-12-0-12-0-12-0-12-0-15-0-15-0-14-0-14----------------------------|
G|------------------------------------------------------------------|
D|------------------------------------------------------------------|
A|------------------------------------------------------------------|
E|------------------------------------------------------------------|
[ Tab from: http://www.guitartabs.cc/tabs/m/matchbook_romance/monsters_tab_ver_3.html ]
e|------------------------------------------------------------------|
B|-12-0-12-0-12-0-12-0----------------------------------------------|
G|---------------------12-0-12-0-11-0-11----------------------------|
D|------------------------------------------------------------------|
A|------------------------------------------------------------------|
E|------------------------------------------------------------------|

e|------------------------------------------------------------------|
B|-11-0-11-0-11-0-11-0----------------------------------------------|
G|---------------------12-0-12-0-11-0-11----------------------------|
D|------------------------------------------------------------------|
A|------------------------------------------------------------------|
E|------------------------------------------------------------------|

e|------------------------------------------------------------------|
B|-10-0-10-0-10-0-10-0-9-0-9-0-9-0----------------------------------|
G|---------------------------------9/10/9999999~--------------------|
D|------------------------------------------------------------------|
A|------------------------------------------------------------------|
E|------------------------------------------------------------------|




Solo!

Guitar 1 plays the Chorus.  Exact same thing.


Guitar 2
e|---------------------------------------6/7-10-10------------------|
B|-------------------------------------------------8----------------|
G|-9h10p9p7---7----------7h9-9/10p7----7-------------11-9-7-6-4-3---|
D|---------h9-7------7h9------------h9-7----------------------------|
A|--------------9h10------------------------------------------------|
E|------------------------------------------------------------------|

e|----------------------------------------66-7----------------------|
B|----------------------------------77-99---------------------------|
G|----------------------------77-99---------------------------------|
D|-----0-22-44-77-88-99-77-88---------------------------------------|
A|-2-4--------------------------------------------------------------|
E|------------------------------------------------------------------|

Tapping part.  Hammers and pull-offs.

e|------------------------------------------------------------------|
B|-0h2h3p2p0h2h3p2p0-h3h5p3p0h3h5p3p0-h5h7p5p0h5h7p5p0--------------|
G|------------------------------------------------------------------|
D|------------------------------------------------------------------|
A|------------------------------------------------------------------|
E|------------------------------------------------------------------|

e|------------------------------------------------------------------|
B|-h7h8p7p0h7h8p7p0-h8h10p8p0h8h10p8p0-h10h11p10p0h10h11p10p0-------|
G|------------------------------------------------------------------|
D|------------------------------------------------------------------|
A|------------------------------------------------------------------|
E|------------------------------------------------------------------|

               tens    elevens
e|-------------------------------10-11-10--10--11-10--10------10----|
B|-7777-8888-10101010-11111111--8--8------8--8---8------12-10----12-|
G|------------------------------------------------------------------|
D|------------------------------------------------------------------|
A|------------------------------------------------------------------|
E|------------------------------------------------------------------|

Chorus


Guitar 2's laft riff

e|-2-3/5-5-7-9-10-9/7~-----------------------------------------------|
B|------------------------------------------------------------------|
G|------------------------------------------------------------------|
D|------------------------------------------------------------------|
A|------------------------------------------------------------------|
E|------------------------------------------------------------------|