Matchbook Romance - 14 Balloons Chords & Tabs

 

14 Balloons Chords & Tabs

Matchbook Romance Chords & Tabs

Version: 1 Type: Tab 0 ratings
1 star 2 stars 3 stars 4 stars 5 stars
comments

14 Balloons Tab

Artist: MatchBook Romance
Song: 14 balloons
Tabbed by Windslash and yaridovich60


Both guitar dropped D

Intro
Guitar 1
-----------------------------------
-----------------------------------
-----------------------------------
-8-8~--8-8~--888-888-888-888-------
-8-8~--8-8~--888-888-888-888-------
-8-8~--8-8~--888-888-888-888-------


Verse 1

Guitar 2
-----------------------------------
-----------------------------------
-----------------------------------
-10-9-8-10-9-8-10-9-8-10-9-8-10-9-8    x7
-----------------------------------
-----------------------------------

Guitar 1
-----------------------------------
-----------------------------------
---888-------------------888-------
---888-------------------888-------
---888-------------------888-------
-----------------------------------
aimlessly ---- Traffic        third

-----------------------------------
-----------------------------------
----888------9-8-999-999-999-------
----888------9-8-999-999-999-------
----888------7/6-777-777-777-------
-----------------------------------
far      tO MYSELF!!!

-----------------------------------
-----------------------------------
-999-999-999-----------------------
-999-999-999-6---------------------
-777-777-777-6---------------------
-------------6---------------------

Chorus
[ Tab from: http://www.guitartabs.cc/tabs/m/matchbook_romance/14_balloons_tab.html ]
Guitar 1
-----------------------------------
-----------------------------------
-3--6------------------------------
-3--6--4--------------------------- x2
-1--4--4---------------------------
-------4---------------------------

Guitar 2
-----------------------------------
-----------------------------------
-13-13-13/15-11--13-13-13/15-11-10-
-x--x--x--x--x---x--x--x--x--x--x-- x2
-11-11-11/13-9---11-11-11/13-9--8--
-----------------------------------
Take

Outro

Guitar 1
-----------------------------------
-----------------------------------
-0-0-0--9-9-9----------9~----------
-0-0-0--9-9-9-x10 then-9~----------
-0-0-0--7-7-7----------7~----------
-----------------------------------
P.M...


Guitar 2
-----------------------------------
-----------------------------------
-0-0-0--11-11-11----------11~------
-0-0-0--x--x--x--x10 then-x-~------
-0-0-0--9--9--9-----------9-~------
-----------------------------------
P.M...

That's it!


Lyrics, to help you with the timing of guitar 2

What makes us burn every bridge we cross?
Or walk aimlessly into oncoming traffic?
Third times a charm, but would we even get that far?
Though I owed it to everyone, but I owe it to myself.

Yeah, I've got fourteen balloons
But, I think I'll let them take to the sky
Yeah, I've got fourteen balloons
We can count them one by one, and say goodbye



Comments, corrections?  Email me at Yaridovich60@hotmail.com
Comments