Mastodon - Workhorse Chords & Tabs

 

Workhorse Chords & Tabs

Mastodon Chords & Tabs

Version: 1 Type: Tab 1 rating
1 star 2 stars 3 stars 4 stars 5 stars
comments

Workhorse Tab

Drop D tuning....
intro Ryth Guitar
------------------------------------------------------------
------------------------------------------------------------
-----7-------------------------------------------------------
-7-8-5----7--5--5--7--5--5--7--6-5--------------------------------------
-5-6------5--3--5--5--3--5--5--4-3-------------------------------------
----------------5--------5------------------------------------


Verse Riff
---------------------------------------------------------------
---------------------------------------------------------------
---------------------------------------------------------------
-7-7---7--10-10-10-8-8-8-8--8---8--8--8---8--8--7--7---------------------------------
-7-7---7--10-10-10-8-8-8-6--6---8--6--6---8--8--7--7---------------------------------
-7-7---7--10-10-10-8-8-8--------8---------8--8--7--7------------------

[ Tab from: http://www.guitartabs.cc/tabs/m/mastodon/workhorse_tab.html ]
Chorus
---------------------------------------------------------------------
--------------------------------------------------------------------
------------------------------------------------------------8--------
--7-5-7-----8-7-6-7---x-x-x-x-x-x--7-6-7--x-x-x-x--8-7-8-0--8--------------------------------
--7-5-7-6-5-8-7-6-7---x-x-x-x-x-x--7-6-7--x-x-x-x--8-7-8-0--6----------------------------------
--7-5-7-----8-7-6-7---x-x-x-x-x-x--7-6-7--x-x-x-x--8-7-8-0-----------

Bridge Rhy.
  PM--          PM------
-------------------------*-------------------------------------------
-------------------------*--------------------------------------------
-------------------------*---------------------------------------------
-7-0-0--7-8-7-10-0-0-0-0-*---8-10-8-7---------------------------------------------------
-7-0-0--7-8-7-10-0-0-0-0-*---8-10-8-7---------------------------------------------------
-7-0-0--7-8-7-10-0-0-0-0-*---8-10-8-7---------------------------------------------------
Comments